Song name
# A B C D E F G H I J K L M N O P Q R S T U V W X Y Z

Brad Paisley - Kentucky Jelly tab

-------------------------------------------------------------------------------------
			    Kentucky Jelly - Brad Paisley
-------------------------------------------------------------------------------------
Tabbed by: Brandon G
Email: terre.gable334@wku.edu

Tuning: Drop D
:: This tab starts AFTER they say "Goodness gracious, Kentucky Jelly!" ::
 -- 1st it's an acoustic guitar, Paisley usually plays a McPherson acoustic.
e|--------------------------------------------------------------------|
B|--------------------------------------------------------------------|
G|-0h2p0--------------------------------0h2p0-------------------------|
D|-------3p0-5p3p0---3---0--------------------3p0-5p3p0---3-------5~--|
A|-----------------3---3---0-3h5-3h5--------------------3---3-----5~--|
D|------------------------------------------------------------3/5-----|

e|------------------------------------------------------|
B|------------------------------------------------------|
G|-0h2p0------------------------------------------------|
D|-------3p0-5p3p0---3---0-----------------5--x-3-------|
A|-----------------3---3---0-3h5-3h5-------5--x-3-------|
D|------------------------------------3/5--x----x-0~~---|

:: I know it's not a lot but it's a really fast song and I'm working on it. Hope this helps. ::

| /  slide up
| \  slide down
| h  hammer-on
| p  pull-off
| ~  vibrato
| +  harmonic
| x  Mute note
=====================================================================================
Tap to rate this tab
# A B C D E F G H I J K L M N O P Q R S T U V W X Y Z