Song name
# A B C D E F G H I J K L M N O P Q R S T U V W X Y Z

Brad Paisley - Find Yourself tab

I've got the intro, and the first part of the first verse, up until the other 
come in. I'm still working on the rest, it's hard to hear the guitar at some parts over the rest 
the music.

Comments are welcome! Hope you enjoy :)


---------------------------0------0--------0-|-------------|
------0h2--------0----------0----0--------0--|-----0h2-----|
---2------2----2---2-1-------1h2-------1h2---|---2-----2---|
--2-----------2------------------------------|--2----------|
-0-----------2-----------------------2-------|-0-----------|
------------------------0--------------------|-------------|

-----------------0------0-|----------0------------------0-|
-----0------------0-----0-|----0-----------0h2--0---------|
---2---2-1---------1----1-|---2---2-----2-------------2---|
--2-----------2-----2-----|--2-----2-----2-----------2----|
-2-----------2------------|-0-----------------------2-----|
------------0-------------|-------------------------------|

----------0--------------------------0------------------0--|
----0----------0--------0h2-----0------0-------------------|
-2-----2------2-------2--------2---------------2-----------|
--2-----2----2-------2----------------------2--------2-----|
--------------------0--------0-----0---------0------2------|
---------------------------------------------------0-------|

------------------0--------|
-----0----0-------------0--|
---2----2-------2----2-----|
-2----2-------2-------2----|
------------0--------------|
---------------------------|
Tap to rate this tab
 
# A B C D E F G H I J K L M N O P Q R S T U V W X Y Z