Song name
# A B C D E F G H I J K L M N O P Q R S T U V W X Y Z

Brad Paisley - Welcome To The Future tab

 this is my first tab, so it might not be correct...but let me see your input...

          INTRO

e----3--------------------------|
B----3------0-1-0h1p0--------3--|
G----0---0h2-0-------2p0--0h2-2-|
D----0--0----------------0------|
A----2--------------------------|
E----3--------------------------|

e----3---------------------------------------------3-|
B----3------0-1-0h1p0--------3-----3---3---3---3-3-3-|
G----0---0h2-0-------2p0--0h2-2--0-2b4-2b4-2b4b2-0-0-|
D----0--0----------------0-------------------------0-|
A----2---------------------------------------------2-|
E----3---------------------------------------------3-|

          VERSE ONE

G
when i was ten years old,
                       C             D
i remember thinkin how cool it would be,
                                   C-C7-C
when we were goin on an eight hour drive,
                      G-G/B-G
if i could just watch tv.
G
and id a given anything,
               C       G       D
to have my own pac-man game at home
                                         C
i used to have to get a ride down to the arcade,
                         G
but now ive got it on my phone

          CHORUS

Emin  G
h-----ey,
                 C
glory glory hallelujah
D              G
welcome to the future

          REPLAY THE INTRO FOR VERSE TWO
Tap to rate this tab
# A B C D E F G H I J K L M N O P Q R S T U V W X Y Z