Song name
# A B C D E F G H I J K L M N O P Q R S T U V W X Y Z

Brad Paisley - Im Gonna Miss Her tab

-------------------------------------------------------------------------------
	 IM GONNA MISS HER  (intro) - Brad Paisley
-------------------------------------------------------------------------------
Tabbed by: Jake Nast
This is just the intro, and its right on from what I can hear, it repeats until he
says "well im gonna miss her"

Tuning: standard with capo on 2nd fret, let ring throughout intro

e|-----------0---------------0---------------0-------------------------------|
B|------------------------------0----0-h-2----------------------2------------|
G|-0-h-1-----------------------------2----------2---------------2------------|
D|-------2----------------2---------------------2------------1--1------------|
A|-----------------------------------0--------------0----2------2------------|
E|-0------------2-/-3-4------------------------------------------------------|


| /  slide up
| \  slide down
| h  hammer-on
| p  pull-off
| ~  vibrato
| +  harmonic
| x  Mute note
===============================================================================
Tap to rate this tab
 
# A B C D E F G H I J K L M N O P Q R S T U V W X Y Z