Song name
# A B C D E F G H I J K L M N O P Q R S T U V W X Y Z

Brad Paisley - Welcome To The Future tab

Song: Welcome to the Future

Album: American Saturday Night

By: Brad Paisley

TabbedBy: Bryson11

Tuning: Standard

Legend
b  Bend
br Bend Release
/  Slide
h  Hammer on
p  Pull off
x  Palm Mute
v  Vibrato

Intro
2xs
||---3-------------------------------------------||
||o--0-----------------0---1p0------------------o||
||---0---------0---0h2---0------0--0--0/2--2-----||
||---0-------------------------------------------||
||o--2------------------------------------------o||
||---3-------------------------------------------||


Verse 1
2xs   G                       C     G       D                 D
||----2-----------------------0-----3----|--2-------2---------2------|
||o---0-----------------------1-----0----|--3---------3-------3------|
||----0-----------------------0-----0----|--2-----------0-----2------|
||----0-----------------------2-----0----|--0-----------------0------|
||o---2-----------------------3-----2----|---------------------------|
||----3-----------------------0-----3----|---------------------------|
    C                             G
|---0-------------------------|---3--------------------------||
|---1-------------------------|---0-------------------------o||
|---0------------0------------|---0--------------------------||
|---2--------0h2---0---0h2----|---0--------------------------||
|---3------3---------3--------|---2-------------------------o||
|---0-------------------------|---3--------------------------||


Chorus:
    Em          C                 G
||---0----------0-------------|---3-----------------------|
||---0----------1-------------|---0-----------------------|
||---0----------0-------------|---0-----------------------|
||---2----------2-------------|---0-----------------------|
||---2----------3-------------|---2-----------------------|
||---0----------0-------------|---3-----------------------|

    Em          C                 G            D
|----0----------0-------------|---3------------2---------||
|----0----------1-------------|---0------------3---------||
|----0----------0-------------|---0------------2---------||
|----2----------2-------------|---0------------0---------||
|----2----------3-------------|---2----------------------||
|----0----------0-------------|---3----------------------||

Play the intro with bend at the end

||---3--------------------------------------------------------------1--||
||---0--------------0---1p0------------------------3---3------------0--||
||---0-------0--0h2---0-----0-0-0/2---2-----2---2--2b--2bbrp0-------0--||
||---0----------------------------------------0---------------------0--||
||---2--------------------------------------------------------------2--||
||---3----------------------------------------------------------3---3--||

Repeat the verse and if you want you can play these riffs in the second stanza of the verse:

||--------------------------------------------10--|
||-----------------------------------10-------10--|
||------0--0h2---0--0h4--7-----9--------9---------|
||--4h5--------------------5-----7--------7-------|
||------------------------------------------------|
||------------------------------------------------|

|--------------------------------------------------------|
|------------------------------------------------12h13---|
|-----5\------9\-------12----12-----15p12--------12------|
|-------------------------10----12--------12-------------|
|--/7------/9------/12-----------------------10----------|
|--------------------------------------------------------|

|-----------------------------------------------------||
|---12---------------------0--------------------------||
|------12------7-----5-------0------------------------||
|---------10-----7-----5-------0----------------------||
|------------------5-----3--------------0-------------||
|-----------------------------------3/5----3bbr--0----||

Repeat Chorus then play the solo below:

||---------------------------------------------|
||-------0-----------------------------0-------|
||---2p0---0---4p0--0-----7p0-----12p0---12----|
||--------------------0-------0----------------|
||---------------------------------------------|
||---------------------------------------------|

|--------------------------------------------------------------------------|
|--------------------------------------------------------------------------|
|-------------------------------------------------------14p12----12--14bbr-|
|----------------------------12h14p12----12-14p12----12--------------------|
|---------10----10/12--12h14----------14----------14----------14-----------|
|---10h12----12------------------------------------------------------------|

---xx-xx-xx-xx--xx--|
---13-13-13-13--12--|
---12-12-12-12--12--|
---12-12-12-12--12--|
---xx-xx-xx-xx--xx--|
---xx-xx-xx-xx--xx--|

|-----------------------------------|
|---8-8---8-------------------------|
|-----7b--7bbr--5----0/2--2-0-------|
|-----------------7-----------0-2---|
|-----------------------------------|
|-----------------------------------|

|------------------------------------------------------||
|-----------------------------------------0-1p0--------||
|---12-----9---12-----7----12-----5----/2-------2-0----||
|------10---------10----------10--------------------2--||
|------------------------------------------------------||
|------------------------------------------------------||

3xs  C                  G             D
||---0---------------|--3-------------2-----------||
||o--1---------------|--0-------------3----------o||
||---0---------------|--0-------------2-----------||
||---2---------------|--0-------------0-----------||
||o--3---------------|--2------------------------o||
||---0---------------|--3-------------------------||

2xs  Starts at 3:03
||---0-------------0------------||
||o--1----1--------3----3------o||
||---0------0------0------0-----||
||---2--------2----4--------4---||
||o--3-------------5-----------o||
||---0-------------0------------||

||---0-------------0-----------------------------------------3---||
||---1----1--------3----3--------5----5--------7----7--------0---||
||---0------0------0------0------5------5------7------7------0---||
||---2--------2----4--------4----5--------5----7--------7----0---||
||---3-------------5-------------7-------------9-------------2---||
||---0-------------0-----------------------------------------3---||

Play through the verse progressions again and then repeat chorus twice, and between the 
chorus' there's a riff...this is how it's played.

||-----------------------------------------------------||
||----------------------------8--8---------------------||
||---14bbr--12----9bbr--7--------7bbr--5---------------||
||------------------------9---------------7--5---------||
||----------------------------------------------7--3---||
||-----------------------------------------------------||

Outro
4xs
||----3--------------------------------------------||
||o---0------------0---1p0-----------------3------o||
||----0-----0--0h2---0-----0--0---0/2--2---2bbrp0--||
||----0--------------------------------------------||
||o---2-------------------------------------------o||
||----3--------------------------------------------||

4xs
||---3---------------------|---2----------------------||
||o--0---------------------|---3---------------------o||
||---0---------------------|---2----------------------||
||---0---------------------|---0----------------------||
||o--2---------------------|-------------------------o||
||---3---------------------|--------------------------||

Repeat until song is over

||---3---------------------------------------||
||o--0-------------0---1--0h1p0-------------o||
||---0------0--0h2---0----------0--0/2--2----||
||---0---------------------------------------||
||o--2--------------------------------------o||
||---3---------------------------------------||

Fades Out
Tap to rate this tab
 
# A B C D E F G H I J K L M N O P Q R S T U V W X Y Z