Brad Paisley - Water tab

Song: Water
Album: American Saturday Night
Artist: Brad Paisley
Tabbed By: Bryson11

Tuning: Standard

Legend
/ slide
b bend
br bend release
x palm mute
* harmonic
h hammer on
p pull off
v vibrato


Intro:
Acoustic Guitar part
||-----------------|-------------|-----------------|--------------------||
||------------0h1--|--1--0-------|------------0h1--|--1--0-------1------||
||----------0------|--0--0--0----|----------0------|--0--0--0-----------||
||------0h2--------|-------------|------0h2--------|---------------2----||
||--3p0------------|--------2/3--|--3p0------------|--------2/3------3--||
||-----------------|-------------|-----------------|--------------------||

Electric Guitar part
4xs  F
||---1--1--1------1---||
||o--1-------1-------o||
||---2----------2-----||
||---3----------------||
||o------------------o||
||--------------------||

Verse 1 Part A
  4xs           4xs         4xs          4xs         4xs
||-----------||----------||-----------||----------||----------||------1--||
||o---------o||o--------o||o---------o||o--------o||o--------o||--3---1--||
||-------10--||-------5--||-------10--||-------3--||-------7--||--3---2--||
||---x-x-----||---x-x----||---x-x-----||---x-x----||---x-x----||--3---3--||
||o---------o||o--------o||o---------o||o--------o||o--------o||--0---0--||
||-----------||----------||-----------||----------||----------||---------||

2xs  F            00:34
||---1--1--1------1--||
||o--1-------1------o||
||---2----------2----||
||---3---------------||
||o-----------------o||
||-------------------||

Verse 1 part B
    F                 C                    F                  A#
||--1--------------|--0-----------------|--1---------------|---------------|
||--1--------------|--1-----------------|--1---------------|--3------------|
||--2--------------|--0-----------------|--2---------------|--3------------|
||--3--------------|--2-----------------|--3---------------|--3------------|
||--0--------------|--3-----------------|--0---------------|--0------------|
||-----------------|--------------------|------------------|---------------|

   Dm                 C            A#       F
|--1---------------|--0------------------|--1------------------||
|--3---------------|--1------------3-----|--1------------------||
|--2---------------|--0------------3-----|--2------------------||
|--0---------------|--2------------3-----|--3------------------||
|------------------|--3------------0-----|--0------------------||
|------------------|---------------------|---------------------||

Chorus:
    A#               F                C                 F
||----------------|--1-------------|--0--------------|--1--------------|
||--3-------------|--1-------------|--1--------------|--1--------------|
||--3-------------|--2-------------|--0--------------|--2--------------|
||--3-------------|--3-------------|--2--------------|--3--------------|
||--0-------------|--0-------------|--3--------------|--0--------------|
||----------------|----------------|-----------------|-----------------|

   A#               F                 C
|----------------|--1--------------|--0---------------|
|--3-------------|--1--------------|--1---------------|
|--3-------------|--2--------------|--0---------------|
|--3-------------|--3--------------|--2---------------|
|--0-------------|--0--------------|--3---------------|
|----------------|-----------------|------------------|

   A#               F               C                  F
|----------------|--1------------|--0---------------|--1-------------||
|--3-------------|--1------------|--1---------------|--1-------------||
|--3-------------|--2------------|--0---------------|--2-------------||
|--3-------------|--3------------|--2---------------|--3-------------||
|--0-------------|--0------------|--3---------------|--0-------------||
|----------------|---------------|------------------|----------------||

   A#                 C           F
|------------------|--0-----------1--||
|--3---------------|--1-----------1--||
|--3---------------|--0-----------2--||
|--3---------------|--2-----------3--||
|--0---------------|--3-----------0--||
|------------------|-----------------||

Repeat verse Part B

Solo
||---------------------------------|--------------------------|
||------------------------6---6----|--6---6--------------0--0-|
||----------------/5---5--------5--|--5b--5bbr---2p0-----2b-0-|
||------------3--------------------|-----------------2p0------|
||--3-----3h5----------------------|--------------------------|
||----3/5--------------------------|--------------------------|

|---------------------------------------------------------|
|-------------------------------------6--6--6------6------|
|------------------------5---------5b---------5b-----5br--|
|-------3-------5----5h7---7--5h7-------------------------|
|-----3-------5---/7--------------------------------------|
|--/5------/7---------------------------------------------|

|-----------------------------------|-----------------------------------|
|-------------------------6--6------|--------4--5-----------------------|
|------------------3--5h7------7p5--|------x------5p3-------------------|
|--x--x--x--x--5h7------------------|----x------------5--3h5p3----------|
|-----------------------------------|--x-----------------------5--3h5p3-|
|-----------------------------------|-----------------------------------|

-----------------|------------------10---------------------------------------|
-----------------|-----6-----6---------13------13---13--13--13------13-13/19-|
-----------------|-3h5---3h5----12b--------x-x----x------x---x--x-x----------|
-----------------|-------------------------x-x----x------x---x--x-x----------|
-----------------|-------------------------x-x----x------x---x--x-x----------|
5--3--4bvvvvvvv--|-----------------------------------------------------------|

||
||
||
||
||
||

repeat chorus then repeat verse part B
Here are the riffs in the verse

||----------------|---------------|----------------|--19-------------|
||------18----18--|-----13----13--|---15-----------|-----------------|
||--/19----19-----|-/14----14-----|------17bbr--15-|-----21bbr--19---|
||----------------|---------------|----------------|-----------------|
||----------------|---------------|----------------|-----------------|
||----------------|---------------|----------------|-----------------|

-------------------8--8--|-----------------------------------------------||
-------------------8--8--|-------------------------6---------------------||
-------10----10h12-------|-----------------------5---5/Slide up the neck-||
-10h12----12-------------|----------------3---5b-------------------------||
-------------------------|--3-----3---3h5--------------------------------||
-------------------------|----3/5---5------------------------------------||

All you have to do next is just mute all of the strings on the third fret and strum 
gradually pushing down on a wah pedal

then play these chords at the end of it
    Dm           C     A#    F
||--1--1--1---|--0--0-----|--1-------------||
||--3--3--3---|--1--1--3--|--1-------------||
||--2--2--2---|--0--0--3--|--2-------------||
||--0--0--0---|--2--2--3--|--3-------------||
||------------|--3--3--0--|--0-------------||
||------------|-----------|----------------||
Tap to rate this tab
 
# A B C D E F G H I J K L M N O P Q R S T U V W X Y Z