Song name
# A B C D E F G H I J K L M N O P Q R S T U V W X Y Z

Brad Paisley - Shes Her Own Woman tab

Song: She's Her Own Woman
Album: American Saturday Night
Artist: Brad Paisley
Tabbed by: Bryson11

Legend
/ slide
b bend
br bend release
v vibrato
h hammer on 
p pull off
x palm mute

intro

||-----------------------|-----------------------|-----------------------|
||------------8-8--------|--8--------------------|-----------------------|
||-----7--7h9--------9/--|--5-5bbrp3-------------|-----5--------5b-5bbr--|
||--/9-------------------|-----------3-----------|-----5h7--5------------|
||-----------------------|-------------3bbrp0----|--/7--------5----------|
||-----------------------|--------------------0--|-----------------------|

|-----------||
|-----------||
|-----------||
|--2bbr0----||
|--------2--||
|-----------||
Tap to rate this tab
 
# A B C D E F G H I J K L M N O P Q R S T U V W X Y Z