Brad Paisley - Time Well Wasted tab

Song: Time Well Wasted
Album: Time Well Wasted
Artist: Brad Paisley
Tabbed By: Bryson11

Tuning: Standard

Legend
/ slide
b bend
br bend release
x palm mute
v vibrato
h hammer on
p pull off
* harmonic

Intro
    F              D
||--1--------------x------------------------------------------------3--------|
||--1--------------3--------------------------------------------------6-3----|
||--2--------------2------------------------------------------3--5b-------5--|b
||--3--------------0-----------------------------------3--3h5----------------|
||--3------------------------------1--1--3--1--1---3/5-----------------------|
||--1--------------------------------------------1---------------------------|

||
||
||
||
||
||

Verse 1
2xs  A#                 C                  F
||---0---------------|--0---------------|--1----------------||
||o--3---------------|--1---------------|--1---------------o||
||---3---------------|--0---------------|--2----------------||
||---3---------------|--2---------------|--3----------------||
||o--0---------------|--3---------------|--3---------------o||
||---x---------------|--x---------------|--1----------------||

    D                 F                   A#                 F
||--x--------------|--1----------------|--0---------------|--1-------------|
||--3--------------|--1----------------|--3---------------|--1-------------|
||--2--------------|--2----------------|--3---------------|--2-------------|
||--0--------------|--3----------------|--3---------------|--3-------------|
||-----------------|--3----------------|--0---------------|--3-------------|
||-----------------|--1----------------|--x---------------|--1-------------|

   C                 A#          C
|--0--------------|--0-----------0--||
|--1--------------|--3-----------1--||
|--0--------------|--3-----------0--||
|--2--------------|--3-----------2--||
|--3--------------|--0-----------3--||
|--x--------------|--------------x--||

Chorus
    F                 D                 A#
||--1--------------|--x--------------|--0--------------|
||--1--------------|--3--------------|--3--------------|
||--2--------------|--2--------------|--3--------------|
||--3--------------|--0--------------|--3--------------|
||--3--------------|-----------------|--0--------------|
||--1--------------|-----------------|--x--------------|

   C           A#    C
|--0-----------0--|--0---------------|
|--1-----------3--|--1---------------|
|--0-----------3--|--0---------------|
|--2-----------3--|--2---------------|
|--3-----------0--|--3---------------|
|--x-----------x--|--x---------------|

   F                D                 A#              C
|--1-------------|--x--------------|--0---------------0--|
|--1-------------|--3--------------|--3---------------1--|
|--2-------------|--2--------------|--3---------------0--|
|--3-------------|--0--------------|--3---------------2--|
|--3-------------|-----------------|--0---------------3--|
|--1-------------|-----------------|--x---------------x--|

   F                 A#            C
|--1--------------|--0-------------0--||
|--1--------------|--3-------------1--||
|--2--------------|--3-------------0--||
|--3--------------|--3-------------2--||
|--3--------------|--0-------------3--||
|--1--------------|--x-------------x--||

Repeat intro
Repeat verse
Repeat chorus

Pre Solo:
    D              F                A#          C
||--x-----------|--1-------------|--0-----------0--|
||--3-----------|--1-------------|--3-----------1--|
||--2-----------|--2-------------|--3-----------0--|
||--0-----------|--3-------------|--3-----------2--|
||--------------|--3-------------|--0-----------3--|
||--------------|--1-------------|--x-----------x--|

   A#              F               C
|--0------------|--1------------|--0-------------|
|--3------------|--1------------|--1-------------|
|--3------------|--2------------|--0-------------|
|--3------------|--3------------|--2-------------|
|--0------------|--3------------|--3-------------|
|--x------------|--1------------|--x-------------|

   D              F                A#           C
|--x-----------|--1-------------|--0------------0--|
|--3-----------|--1-------------|--3------------1--|
|--2-----------|--2-------------|--3------------0--|
|--0-----------|--3-------------|--3------------2--|
|--------------|--3-------------|--0------------3--|
|--------------|--1-------------|---------------x--|

   A#          F     A#                    C
|--0-----------1--|--0------------------|--0--------------||
|--3-----------1--|--3------------------|--1--------------||
|--3-----------2--|--3------------------|--0--------------||
|--3-----------3--|--3------------------|--2--------------||
|--0-----------3--|--0------------------|--3--------------||
|--x-----------1--|--x------------------|--x--------------||

Solo:

||--------------------------------------------0----|
||----------------------------------6--5--------0--|
||-------------------------------------------------|
||----------------------3-----3--5b------5br-------|
||--1--xx--1--3--1--3/5---3/5----------------------|
||-----xx------------------------------------------|

|-------------------------------------------------|
|------------------------8--6---------------------|
|-----------------------------5b------------------|
|-----------3h5/7--5h7/8---------5/slide up neck--|
|-----3h4h6---------------------------------------|
|--/5---------------------------------------------|

|--17--15--15h17p15-----------------------||
|-------------------17--15----------------||
|--------------------------12---------12--||
|-----------------------------14---14-----||
|-----------------------------------------||
|-----------------------------------------||

repeat chorus
Ending
    F             D                                    F
||--1-------------x------------------------------------1--------------||
||--1-------------3------------------------------------1--------------||
||--2-------------2------------------------------------2--------------||
||--3-------------0------------------------------------3--------------||
||--3--------------------------1--xx--1--1/3-----------3--------------||
||--1-----------------------------xx-------------------1--------------||
Tap to rate this tab
 
# A B C D E F G H I J K L M N O P Q R S T U V W X Y Z