Song name
# A B C D E F G H I J K L M N O P Q R S T U V W X Y Z

Brad Paisley - Aint Nothin Like tab

-------------------------------------------------------------------------------
			     Ain't Nothing Like - Brad Paisley
-------------------------------------------------------------------------------
Tabbed by: Palli_
Email: palli@kominak.sk

Tuning: standard 



This is the first part of intro played by acoustic guitar:
   
E||-----------------------------|---------------------------------|
B||-----------------------------|----1-------1--------------------|
G||-------------------0------0--|----0h2-----0h2---0--------------|
D||-------------------0h--2-----|--------------------------0h2----|
A||----------------3------------|------------------3----3---------|
E||-----------------------------|---------------------------------|


--------------------------------------|----------------------------------|
--------------------------------------|---------1---------1--------------|
-------------------------0---------0--|--0h--2-----0h2----0--------------|
--0-------0-------0h--2-----(2)-------|---------------------------0h2----|
-------3-------3----------------------|------------------------3---------|
--------------------------------------|----------------------------------|

                                                   
------------------------------|
------------------------------|
--0--------------0------------|
--0---------------------------|
----------0h--2---------------|
-------3----------------------|



And here it's the second part of the intro played with electric guitar:

E||-----------------------------|---------------------------------|
B||-----------------------------|---------------------------------|
G||--------------------------0--|--0h2-----0h2-----0--------------|
D||-------------------0h--2-----|--------------------------0h2----|
A||----------------3------------|-----------------------3---------|
E||-----------------------------|---------------------------------|


--------------------------------------|----------------------------------|
--------------------------------------|---------1------------------------|
-------------------------0---------0--|--0h--2-----0h2----0--------------|
--0-------0-------0h--2-----(2)-------|---------------------------0h2----|
-------3-------3----------------------|------------------------3---------|
--------------------------------------|----------------------------------|


------------------------|
------------------------|
------------------------|
--0---------------------|
----------2----3--------|
-------3----------------|


************************************

| /   slide up
| \   slide down
| h   hammer-on
| p   pull-off
| ~   vibrato
| (n) ghost note
| +   harmonic
| x   Mute note
| b   Bend
| pb  Pre-bend
| br  Bend release
| pbr Pre-bend release
| brb Bend release bend

************************************
Tap to rate this tab
 
# A B C D E F G H I J K L M N O P Q R S T U V W X Y Z