Song name
# A B C D E F G H I J K L M N O P Q R S T U V W X Y Z

Brad Paisley - Shes Everything tab

-----------------------------------------------------------------------------
			     She's Everything - Brad Paisley
-----------------------------------------------------------------------------
Tabbed by: Mr. Clean and Jesus.
Email:Semorebutts117@yahoo.com

Tuning: Standard

Notes: Chords noted above tableture are the basic chord shapes those sections are based
of. In other words, base your finger positions off of the chord name in parenthesis.
luck! Listen to the beginning of the song a few times and you should get a good 
of the timing. Not very difficult.

-This way can be played with one guitarist. Sound is full, but not totally complete; 
enough-

     (C)                 (Am7)           (Dm)
e|----------------------------------------8---------------------------------|
B|-------1--1--0--1------------1--1----------8h10~~-------------------------|
G|-----0---------------------0--------//9-----------------------------------|
D|---2---------------------2------------------------------------------------|
A|--3--------------------0--------------------------------------------------|
E|--------------------------------------------------------------------------|

e|----------------------------------12--8~----------------------------------|
B|--8----------------------------------------8//--10~~----------------------|
G|---7b(8)r--5-5~--7p5-7p5~-------------------------------9p7~--------------|
D|--------------------------------------------------------------------------|
A|--------------------------------------------------------------------------|
E|--------------------------------------------------------------------------|


-This way is to be played with two guitars; an acoustic (guitar 1), and a clean electric
a hint of distortion (guitar 2)-

Guitar 1:
   (C)                 (Am7)
e|--------------------------------------------------------------------------|
B|-------1--1--0--1------------1--1--0--1-----------------------------------|
G|-----0---------------------0----------------------------------------------|
D|---2---------------------2------------------------------------------------|
A|--3--------------------0--------------------------------------------------|
E|--------------------------------------------------------------------------|

Guitar 2:
                                     (Dm)
e|----------------------------------------8---------------------------------|
B|-------------------------------------------8h10~~-------------------------|
G|-----------------------------------///9-----------------------------------|
D|--------------------------------------------------------------------------|
A|--------------------------------------------------------------------------|
E|--------------------------------------------------------------------------|

Guitar 1:
   (F)                (G)
e|--------------------------------------------------------------------------|
B|-------1-1-0-1-----------1-----3------------------------------------------|
G|------0--------------0----------------------------------------------------|
D|----3------------------0----0---------------------------------------------|
A|--3----------------2------------------------------------------------------|
E|-----------------3--------------------------------------------------------|

Guitar 2:
e|--------------------------------------------------------------------------|
B|-------------------------------8------------------------------------------|
G|----------------------------------7b(8)r-5--------------------------------|
D|--------------------------------------------------------------------------|
A|--------------------------------------------------------------------------|
E|--------------------------------------------------------------------------|

Guitar 1:
  (C)                 (Am7)
e|--------------------------------------------------------------------------|
B|-------1--1--0--1------------1--1--0--1-----------------------------------|
G|-----0---------------------0----------------------------------------------|
D|---2---------------------2------------------------------------------------|
A|--3--------------------0--------------------------------------------------|
E|--------------------------------------------------------------------------|

Guitar 2:
e|-----------------------------12--8~---------------------------------------|
B|--------------------------------------------------------------------------|
G|--5~-7p5-7p5~-------------------------------------------------------------|
D|--------------------------------------------------------------------------|
A|--------------------------------------------------------------------------|
E|--------------------------------------------------------------------------|

Guitar 1:
    (F)                (G)
e|--------------------------------------------------------------------------|
B|-------1-1-0-1-----------1-----3------------------------------------------|
G|------0--------------0----------------------------------------------------|
D|----3------------------0----0---------------------------------------------|
A|--3----------------2------------------------------------------------------|
E|-----------------3--------------------------------------------------------|

Guitar 2:
e|----------------------------------------------------------------------------|
B|----------8//10~~-----------------------------------------------------------|
G|--------------------------9p7~----------------------------------------------|
D|----------------------------------------------------------------------------|
A|----------------------------------------------------------------------------|
E|----------------------------------------------------------------------------|


************************************

| /   slide up
| \   slide down
| h   hammer-on
| p   pull-off
| ~   vibrato
| +   harmonic
| x   Mute note
| b   Bend
| pb  Pre-bend
| br  Bend release
| pbr Pre-bend release
| brb Bend release bend

************************************
Tap to rate this tab
 
# A B C D E F G H I J K L M N O P Q R S T U V W X Y Z