Song name
# A B C D E F G H I J K L M N O P Q R S T U V W X Y Z

Brad Paisley - Lifes Railway To Heaven tab

Standard tuning:

Play at liberty and with feeling...

E|--------3---------------0--0-----------------------------|
B|--------3---------------3----3-------------------------1-|
G|--------0---------------2------2---------------------0---|
D|--------0-------------0-0--------0---------------1h2-----|
A|--------2-----0-2-3-4--------------------0-1-2-3---------|
E|0-1-2-3-3------------------------------------------------|


E|--3p1--------------------------3-------------------------|
B|------3p2p1--------------------3-------------------------|
G|-----------3/4-0-----0---------0-------------------------|
D|-----------------2p0---0-------0-------------------------|
A|-------------------------0-----2-------------------------|
E|---------------------------2-3-3-------------------------|
Tap to rate this tab
 
# A B C D E F G H I J K L M N O P Q R S T U V W X Y Z