Song name
# A B C D E F G H I J K L M N O P Q R S T U V W X Y Z

Brad Paisley - Shes Everything tab

(Verse)
  D  U  D  U    D  U  D  U    D  U  D  U    D  U  D  U
e--0--0--0--0------------------0--0--0--0----3--3--3--3--|
B--1--1--1--0----1--1--1--0----1--1--1--0----0--0--0--0--|
G--0--0--0--0----2--2--2--2----2--2--2--2----0--0--0--0--|
D--2--2--2--2----2--2--2--2----3--3--3--3----0--0--0--0--| {6x}
A--3--3--3--3----0--0--0--0----0--0--0--0----2--2--0--2--|
E--------------------------------------------3--3--3--3--|

(Chorus)
   D  D  D  U  D  U  D  D  D  U  D  U  D  U  D  U  D   U  D  U  D  U  D   U
e--0--0--0--0--0--0--3--3--3--3--3--3--0--0--0--0---------------------0---0-|
B--1--1--1--1--1--1--0--0--0--0--0--0--1--1--1--1--1---1--1--1--1--1--1---1-|
G--2--2--2--2--2--2--0--0--0--0--0--0--0--0--0--0--2---2--2--2--2--2--2---2-|
D--3--3--3--3--3--3--0--0--0--0--0--0--2--2--0--0--2---2--2--2--2--2--3---3-|
A--0--0--0--0--0--0--2--2--2--2--2--2--3--3--2--2--0---0--0--0--0--0--0---0-|
E--------------------3--3--3--3--3--3---------------------------------------|
   D  U  D  U  D
e--0--0--0--0--3-----|
B--1--1--1--1--0-----|
G--2--2--2--2--0-----| (Go back and repeat verse)
D--3--3--3--3--0-----|
A--0--0--0--0--2-----|
E--------------3-----|

D = strum down
U = strum up

listen to the song for the rythm if you cant figure it out.

this is my first tab so my bad if i messed up
Tap to rate this tab
# A B C D E F G H I J K L M N O P Q R S T U V W X Y Z