Song name
# A B C D E F G H I J K L M N O P Q R S T U V W X Y Z

Brad Paisley - Remind Me tab

Artist: Brad Paisley 
Song: Remind Me (Duet with Carrie Underwood)

Tuning: Standard
Capo: 3 (ONLY GUITAR 1!!!) 


INTRO:

Guitar 1
e|---------------------------------------------------------------------------|
B|---------------------------------------------------------------------------|
G|---------------------------------------------------------------------------|
D|---2/4-2/4-2/4---------------2/4-2/4-2/4-----2/4-2/0-0---------------------|
A|----------------0--7/9-12-7---------------0------------0---0-0--1p0--------|
E|--------------------------------------------------------------------3------|

e|---------------------------------------------------------------------------|
B|---------------------------------------------------------------------------|
G|---------------------------------------------------------------------------|
D|---2/4-2/4-2/4-------2/4-2/4-2/4----7b---4/2---0-2/4-5---------------------|
A|-------------------0--------------0----------------------4/5---------------|
E|---------------------------------------------------------------------------|

Guitar 2
e|----------------------------------------------------------------------------|
B----------------------------------------------------------------------------|
G----------------5-7-10-7---------5-7-5-3-5-----------------------------------|
A--------------3----------------3------------3--------------------------------|
E-----------------------------------------------------------------------------|

[sri don't know the last part of guitar 2 :(]

[VERSE]

D                                Bm
We didn't care if people stared, we'd make out in a crowd somewhere
A                                      G
Somebody'd tell us to get a room, it's hard to believe that was me and you
D                                    Bm
Now we keep saying that we're ok, but I don't want to settle for good not great
A                                     G
I miss the way that it felt back then, I wanna feel that way again

[CHOURS]
D                                     Bm
Been so long that you've forget, the way I used to kiss your neck
A           G
Remind me, remind me
D                      Bm
So on fire so in love. Way back when we couldn't get enough
A           G
Remind me, remind me

[VERSE]

D                                              Bm
Remember the airport dropping me off, we were kissing goodbye and we couldn't stop
A                                            G
I felt bad cause you missed your flight, but that meant we had one more night

[CHOURS]

D                                       Bm
Do you remember how it used to be, we'd turn out the lights and didn't just sleep
A                G
Remind me, baby remind me
   D                            Bm
Oh so on fire so in love, that look in your eyes that I miss so much
A                G
Remind me, baby remind me

[BRIDGE]

         A                           G
I wanna feel that way, yeah I wanna hold you close
            A                        G
Oh If you still love me, don't just assume I know

[SOLO]

[CHOURS]

D                                    Bm
Do you remember the way it felt? You mean back when we couldn't control ourselves
A                G
Remind me, yeah remind me
D                                          Bm
All those things that you used to do, that made me fall in love with you
A                   G
Remind me, oh baby remind me

[VERSE]

D                                     Bm         
Yeah you'd wake up in my old t-shirt, all those mornings I was late for work
A                   G    D  Bm
Remind me, oh baby remind me
         A               G      
Oh baby remind me, baby remind...
D                                     Bm
Yeah you'd wake up in my old t-shirt
  A       G  
Oh, baby remind me

[OUTRO]

D  Bm  G  A ...


Tap to rate this tab
# A B C D E F G H I J K L M N O P Q R S T U V W X Y Z