Song name
# A B C D E F G H I J K L M N O P Q R S T U V W X Y Z

Brad Paisley - Old Alabama tab

Intro:
E-------------------------------------------|
B----------3----3---3-----------1----1------|
G-----0-0-2b4--0----------------0b2--0------|
D-0h2-------------0-----0-2-3-3---------3---|
A-------------------------------------------|
E-------------------------------------------|

E-----8-------------------------------------|
B-------8-----------8-10-10b11-10r-8~~~-----|
G-/9------pbr7--7/9-------------------------|
D-------------------------------------------|
A-------------------------------------------|
E-------------------------------------------|

E-------------------------------------------|
B----------3----3---3-----------1----1------|
G-----0-0-2b4--0----------------0b2--0------|
D-0h2-------------0-----0-2-3-3---------3---|
A-------------------------------------------|
E-------------------------------------------|

E-------------------------------------------------------3---|
B----5-X------------------------------------------------3---|
G------2p4p0------------------------------------------------|
D-/5----------2~~----2-2b3r2-----------------------0--------|
A---------------------------------3-3b4r3----1/2------------|
E------------------*3-----------3----------3------3*--------|
Tap to rate this tab
# A B C D E F G H I J K L M N O P Q R S T U V W X Y Z