Song name
# A B C D E F G H I J K L M N O P Q R S T U V W X Y Z

Brad Paisley - This Is Country Music tab

-----------------------------------------------------------------------------
                            This is Country Music - Brad Paisley
-----------------------------------------------------------------------------
Tabbed by: Nick Nelson


Tuning: Drop D


e|--------------------------------------------------------------------------|
B|--------------------------------------------------------------------------|
G|-----2-0-0-0--------------------------------------------------------------|
D|-----0-----------------0-----2/4--5~--4/2---------------------------------|
A|-----0---------0h2p0------------------------5p4-7p5-4h5--0----------------|
E|--0--0--------------------0--------------------------------0--------------|


1, 2, 3...


e|--2---------------------------------3-------------------------------------|
B|--3-----------------------------------------------------------------------|
G|--2----------------------------0------------------------------------------|
D|-----2---2/4-----4/2--0-----------0---------------------------------------|
A|-------0------0-----------------------------------------------------------|
E|--------------------------4/5---------------------------------------------|

e|--2---------------------------------3-------------------------------------|
B|--3-----------------------------------------------------------------------|
G|--2----------------------------0------------------------------------------|
D|-----2---2/4-----4/2--0-----------0---------------------------------------|
A|-------0------0-----------------------------------------------------------|
E|--------------------------4/5---------------------------------------------|


************************************

| /   slide up
| \   slide down
| h   hammer-on
| p   pull-off
| ~   vibrato
| +   harmonic
| x   Mute note
| b   Bend
| pb  Pre-bend
| br  Bend release
| pbr Pre-bend release
| brb Bend release bend

************************************
Tap to rate this tab
# A B C D E F G H I J K L M N O P Q R S T U V W X Y Z