Song name
# A B C D E F G H I J K L M N O P Q R S T U V W X Y Z

Brad Paisley - Ticks tab

-----------------------------------------------------------------------------
                             TICKS - Brad Paisley
-----------------------------------------------------------------------------

Tabbed by:twoz
This is the intro "solo", not the background guitar. PLEASE RATE!

Tuning:EADGBe

e|------------------------------------------------------|
B|------------------------------------------------------|
G|---------2-4b6-4p2-4-1-1------------------------------|
D|-------------------------4p2-4------------------------|
A|------0------------------------2-2--------2-------2---|
E|-0-3sb------------------------------x-xxx---0h2h4-----|
                                   
e|---------------------------0--------------------------|
B|---------------------------0--------------------------|
G|-2-4b6-4p2-4-1-1-------6-4-1---/9\--------------------|
D|-----------------4p2---6-4-2---/9\--------------------|
A|-----------------------4-2-2---/7\--------------------|
E|---------------------------0--------------------------|

HAVE FUN!!!
  -twoz
************************************

| /   slide up
| \   slide down
| h   hammer-on
| p   pull-off
| b   Bend
| sb  Slight bend
| x   Mute

************************************
Tap to rate this tab
# A B C D E F G H I J K L M N O P Q R S T U V W X Y Z