Song name
# A B C D E F G H I J K L M N O P Q R S T U V W X Y Z

Brad Paisley - This Is Country Music tab

=====================================================
-----------------------------------------------------
This Is Country Music
by Brad Paisley
Tabbed by Frederick Robinson
Drop D Tuning [D A D G B E]
-----------------------------------------------------


|--------------------------------------|
|--------------------------8--7-7--7---|
|------------------------7-------------|
|--------------------7-9---9--7-7--7---|
|------------0-5S7-9-------------------|
|------0-4s5---------------------------|


|----------------------------3-------|
|-----------10---8-8-----------3-----|
|-----7---7----------------0-----0---|
|---7---9---10---9-9---------------0-|
|-9--------------------/5------------|
|------------------------------------|


  M       R  M       R  M       R
|----------------------------------------|
|----------------------------------------|
|-4p2p0---0------------------------------|
|------------0h2p0---0-------------------|
|-------4----------4----0h2p0---0--------|
|-----------------------------4----2b4r0-|



|---------------------------------------|
|-----------------7-----8-----7-----/10-|
|-----7-----9--------------------7S2----|
|-6h7---7-----x-----x-----x-------------|
|---------x-----x-----x-----x-----------|
|---------------------------------------|


           R R~~~
|----------x-x------------------|
|-8-7-----7---7-----------------|
|--------x--------9-7--6h7p6s4--|
|-------7-----------------------|
|------x------------------------|
|-----x-------------------------|



|-------------------10----14b15-|
|-------8-----10-12----10-------|
|-----7---/12-------------------|
|-5s9---------------------------|
|-------------------------------|
|-------------------------------|



|----15----15p14-12h14p12s10---------|
|-------12-------------------12-10\7-|
|-14---------------------------------|
|------------------------------------|
|------------------------------------|
|------------------------------------|



|-------------------------------------------------|
|-10----12-10-------------------------------------|
|----11-------11-9-11-10-9-7-9-7\4----4p2p0-------|
|-----------------------------------0-------0-----|
|-------------------------------------------------|
|---------------------------------------------7b9-|
                                              ^
                   Alternative to open A "Nut Bend"


-----------------------------------------------------
I slowed this down using Sound Forge and tabbed it 
note by note so I'm pretty sure it's dead on. I did 
however, add the notes to make a couple double stops
at the very beginning which I think makes it sound 
better but leave them out if you like. Also, I broke
it down into pieces to make it easier to learn.
-----------------------------------------------------
=====================================================
Tap to rate this tab
# A B C D E F G H I J K L M N O P Q R S T U V W X Y Z