Song name
# A B C D E F G H I J K L M N O P Q R S T U V W X Y Z

Brad Paisley - Departure tab

Brad Paisley: Departure (intro)

There are some funky g bender parts in here (I believe).  They are
quite hard to hear, but I think it is mostly correct.

pbr = Pre-bend release

mooman2679@gmail.com


  delay    delay
e-----------------------0-------------------------------------|
B----9h12-----4h7-------5----4/5------------------------------|
G-----------------------6--------------2---1------------------|
D--9--------4-----------6---------7-----------2------------2--|
A-----------------------4------------------------2------------|
E----------------------------------------------------0--------|

e-------0-----------------------------------------------------|
B------4-4----------------------------------------------------|
G-----6---6--------------2--4p1---2-4~------------------------|
D--2/6-----6-----6------2------2--2/4~----1-2-4---------------|
A-------------6h7--0--------------------2-------2-------------|
E-------------------------------------------------------------|

e-------0---------------------------------------------|
B------4-4-----------------0--------------------------|
G-----6---6-------------2bh--2br1---------------------|
D--2/6-----6----6------2----------2/4------------2----|
A------------6h7--0-------------------2---------------|
E---------------------------------------0---0h2/4-----|

e-------0------------------------------------------|
B------4-4-----------------------------------------|
G-----6---6-----------2--4p1---2/4~----------------|
D--2/6-----6----6----2------2--2/4~-----1-2h4------|
A------------6h7--0-------------------2-------2----|
E--------------------------------------------------|

e-------0------------------------------------------|
B------4-4-----------------0-----------------------|
G-----6---6------------2----4/2-1------------------|
D--2/6-----6----6-----2--x--------4--2-------------|
A------------6h7--0-----------------2--------------|
E--------------------------------------0--0-0-0----|

e------2---------------------------------0----------|
B------3----2----------0-0----------------2---------|
G-----2---2------4~-2--1-2/4--4br----------2\-------|
D----4----0----2-------2-2/4--4--------2------------|
A--/5-----------------------------------------------|
E---------------------------------------------------|
                       g-bender      g-bender
e------2---------------------------------------------|
B------3----2-----------------7----3-------------4---|
G-----2---------4\2------9br---9---2----6pbr---4b----|
D----4----0---2---------9----------0---7----7-4------|
A--/5-----------------/7--------------9--------------|
E----------------------------------------------------|
Tap to rate this tab
# A B C D E F G H I J K L M N O P Q R S T U V W X Y Z