Song name
# A B C D E F G H I J K L M N O P Q R S T U V W X Y Z

Brad Paisley - Kentucky Jelly tab

This is the electric solo.  Brad is using a G bender for the behind the
nut bend at the beginning.


mooman2679 at gmail.com


~ = Vibrato
pb = Pre-bend
rb = Release bend

            Behind nut                                          quiet
e-----------------------------------------------------------------------------------|
B--6--------0-1------------------------------------------0--0--1--------------------|
G---5pbrb------0pbr--------------------------------0------5b----2p0-----------------|
D--------------------3/7-5p3p0-0---------------0-----5h7----------3p0---------------|
A-----------------------------3-0---------0---3-5h7-7----------------3/5------------|
D--------------------------------0h3bp0----3/5--------------------------------------|

e------13~-10--------------------------------------------------------|
B------------13p10--10-----------------------------------------------|
G---------------------12p10--10------------10bh-10r------------------|
D--7/12--------------------12--12p10-------12---12-------------------|
A--7/12-----------------------------12p10\8--------------------------|
E--------------------------------------------------------------------|


e----------------------------------------------------------------------------|
B------0---------------------------------------------------------------------|
G-----0-----5---6---7-----8-----9-----10-----11-----12-----13-----14-----15--|
D----------------------------------------------------------------------------|
A--3/5---7-7-8-8-9-9-10-10-11-11-12-12--13-13--14-14--15-15--16-16--17-17----|
E----------------------------------------------------------------------------|

e--------------------------------------------------------------------|
B--------------------------------------------------------------------|
G----------16-----17-----18-----19-19~~------------------------------|
D--------------------------------------------------------------------|
A-----18-18--19-19--20-20--21-21-------------------------------------|
E--------------------------------------------------------------------|
Tap to rate this tab
 
# A B C D E F G H I J K L M N O P Q R S T U V W X Y Z