Song name
# A B C D E F G H I J K L M N O P Q R S T U V W X Y Z

Brad Paisley - Kentucky Jelly tab

This is the lead that comes in around 1:00.
There are variations of this for the acoustic and electric before this.
If you can play this, i'm sure you can figure out that ;)

mooman2679 at gmail.com

pbr = pre-bend release
! =  harmonic


e-------------------------------------------------------------------------------------------------|
B-0-----------------------------------------------------------------------------------------------|
G--2pbr1p0---0----0h2p1p0---0------------------1h2p1p0---0--------------0h2p1p0---0---------------|
D---------3p0------------3p0-3p0-3-0-----0-0----------3p0-3p0-3-----5---------3p0--3p0-3-0-----0--|
A-------------------------------3-3-0h3/5-5------------------3-0----5-----------------3-3-0h3/5-5-|
D---------------------------------------------------------------3/5-------------------------------|

e-----------------------------------|
B-----------------------------------|
G-----------------------------------|
D-------5------------0--------------|
A-------5---------0h3-0-------------|
D-0-3/5---0-3b-0--------------------|

e-----------------------------------------------------------------------------------|
B-----------------------------------------------------------------------------------|
G--1h2p1p0---0-----------------0h2p1p0---0-------------0h2p1p0---0------------------|
D---------3p0-3p0-3-0-----0-0---------3p0-3p0-3----5----------3p0-3p0-3-0-----0-----|
A----------------3-3-0h3/5-0-----------------3-0---5-----------------3-3-0h3/5-5----|
D-----------------------------------------------3/5---------------------------------|

e----------------------------------------------------|
B---------------------------------7!-----------------|
G-------------------------------7!--7!B-behind nut---|
D-------5-----------------7!--7!---------------------|
A-------5-----------5!--7!--7!-----------------------|
D-0-3/5---0-3b-0--5!---------------------------------|
Tap to rate this tab
 
# A B C D E F G H I J K L M N O P Q R S T U V W X Y Z