Song name
# A B C D E F G H I J K L M N O P Q R S T U V W X Y Z

Brad Paisley - Southern Comfort Zone tab

-------------------------------------------------------------------------------
                             Brad Paisley - Southern Comfort Zone
-------------------------------------------------------------------------------
Tabbed by: Tyler
E-mail: mooman2679@gmail.com

Tuning:EADGBE

Intro:

e|-----------------------------------------------------------------------------|
B|o--------0------------------------------0------------------------------------|
G|-----------------------------------------------------------------------------|
D|-----6--6---6--4--4--4--4---------6-6-6---6--4--4--4--4----------------------|
A|o--------------7--7--7--7---7h9---7-7-7------7--7--7--7----7h9---------------|
E|---0-----------0--0--0--0---0----------------0--0--0--0----0-----------------|

e|-----------------------------------------------------------------------------|
B|-------0-----------------------------0--------------------------------------o|
G|-----------------------------------------------------------------------------|
D|--6--6---6--4--4--4--4--2h4---6--6-6---6--4--4--4--4--2h4--------------------|
A|--0------0--0--0--0--0--0-----0--0-0---0--0--0--0--0--0---------------------o|
E|-----------------------------------------------------------------------------|


Solo: 3:25

e|-----0-----0---0---0------0--------------0----0-----0---0--------------------|
B|----12----12--12--12-----12---12--------12---12----12--12--------------------|
G|----11bh--11--11--11br9--11bh----11r----11b--11br9-11---9----------13--------|
D|-----------------------------------------------------------------16----------|
A|----------------------------------------------------------7/14-14------------|
E|--0----------------------------------0---------------------------------------|

e|----------0---0---0---0----0------0--0---------------------------------------|
B|---------16--16--17--14---14\---5-5/9--7h9p7p0-5h7p5p0-4h5p4p0---------------|
G|---------16--16--16--14---14\---------------------------------4h6p4p0--------|
D|--14/16----------------------------------------------------------------------|
A|--14/16----------------------------------------------------------------------|
E|-----------------------------------------------------------------------------|

e|---------------------------0-16------------------------19-------------19-----|
B|--------------------------17-------------16-17---17--16---17---19-19bh-------|
G|--2h4p2p0-----------------16---16~\------------16--16-------16---------------|
D|----------4p2p0----------------------/16-------------------------------------|
A|----------------4p2p0----------------/16-------------------------------------|
E|----------------------0------------------------------------------------------|

e|------19----19--17-----------------------------------------------------------|
B|--19bh--19bh--19--19r17----------16--17-16--17--16--14-14--------------------|
G|-----------------------16\-/16-16--16-----14--14--14---14--------------------|
D|-----------------------------------------------------------------------------|
A|-----------------------------------------------------------------------------|
E|-----------------------------------------------------------------------------|

************************************

| /   slide up
| \   slide down
| h   hammer-on
| p   pull-off
| ~   vibrato
| +   harmonic
| x   Mute note
| b   Bend
| pb  Pre-bend
| br  Bend release
| pbr Pre-bend release
| brb Bend release bend

************************************
Tap to rate this tab
 
# A B C D E F G H I J K L M N O P Q R S T U V W X Y Z