Song name
# A B C D E F G H I J K L M N O P Q R S T U V W X Y Z

Brad Paisley - Then tab

|-----------------|
|-8\5-------------|
|------7-5-7b--7b-|
|-----------------|
|-----------------|

|-----------------|
|-8-5-------------|
|------7-5-7b--7b-|
|-----------------|
|-----------------|
|-----------------|

|-----------------|
|-8-5-------------|
|------7-5-7b--7b-|
|-----------------|
|-----------------|
|-----------------|

I remember trying not to stare the night
 Am          
|------|
|-1----|
|-2----|
|-2----|
|------|
|------|

That I first met you, you had me mesmerized

  F        
|-1-----|
|-1-----|
|-2-----|
|-3-----|
|-3-----|
|-1-----|

And three weeks later in the front porch light
  C          
|-0-----|
|-1-----|
|-0-----|
|-2-----|
|-3-----|
|-0-----|

Taking 45 minutes just to kiss goodnight
    G
|---3--|
|---0--|
|---0--|
|---0--|
|---2--|
|---3--|


                                                          
I hadn't told you yet but I thought I loved you then
|-------3------------3------------5-------------1-------|
|---------3------------3------------5-------------1-----|
|-----4------------4------------6-------------2---------|
|---5------------5------------7-------------3-----------|
|-------------------------------------------------------|
|-------------------------------------------------------|
But now you're my whole life, now you're my whole world

|----------------------------------3----------------------------3---------|
|-----------------------------------3----------------------------3--------|
|-------------------------------4----------------------------4------------|
|-----------------------------5----------------------------5--------------|
|-------------------------------------------------------------------------|
|-------------------------------------------------------------------------|

And I just can't believe the way I feel about you girl
|-------------------------5-------------1-------|
|---------------------------5-------------1-----|
|-----------------------6-------------2---------|
|---------------------7-------------3-----------|
|-----------------------------------------------|
|-----------------------------------------------|

Like a river meets the sea, stronger than it's ever been
|-------------------------------3---------------------------3---------|
|--------------------------------3---------------------------3--------|
|----------------------------4---------------------------4------------|
|--------------------------5---------------------------5--------------|
|---------------------------------------------------------------------|
|---------------------------------------------------------------------|

We've come so far since that day and I thought I loved you then
|-----------------------------------5-------------1-------|
|-------------------------------------5-------------1-----|
|---------------------------------6-------------2---------|
|-------------------------------7-------------3-----------|
|---------------------------------------------------------|
|---------------------------------------------------------|

And I remember taking you back to right where I first met you
|-----------------|
|-8-5-------------|
|------7-5-7b--7b-|
|-----------------|
|-----------------|
|-----------------|

You were so surprised
|-----------|
|--5--------|
|----7b--5--|
|-----------|
|-----------|
|-----------|



There were people around but I didn't care
|--------------------------------------------|
|--13--13--13/12--12--12--12/10--10--10------|
|----------------------------------------12--|
|--------------------------------------------|
|--------------------------------------------|
|--------------------------------------------|

I got down on one knee right there
|----------|
|----------|
|----0-----|
|------0---|
|----------|
|--3-------|

But now you're my whole life, now you're my whole world

|----------------------------------3----------------------------3---------|
|-----------------------------------3----------------------------3--------|
|-------------------------------4----------------------------4------------|
|-----------------------------5----------------------------5--------------|
|-------------------------------------------------------------------------|
|-------------------------------------------------------------------------|

And I just can't believe the way I feel about you girl
|-------------------------5-------------1-------|
|---------------------------5-------------1-----|
|-----------------------6-------------2---------|
|---------------------7-------------3-----------|
|-----------------------------------------------|
|-----------------------------------------------|

Like a river meets the sea, stronger than it's ever been
|-------------------------------3---------------------------3---------|
|--------------------------------3---------------------------3--------|
|----------------------------4---------------------------4------------|
|--------------------------5---------------------------5--------------|
|---------------------------------------------------------------------|
|---------------------------------------------------------------------|

We've come so far since that day and I thought I loved you then
|-----------------------------------5------------------------------1-------|
|-------------------------------------5------------------------------1-----|
|---------------------------------6------------------------------2---------|
|-------------------------------7------------------------------3-----------|
|--------------------------------------------------------------------------|
|--------------------------------------------------------------------------|





|----------------------------------|
|-----------5---5------------------|
|--7b---------7---7b--5h7p5---5h7--|
|---------------------------7------|
|----------------------------------|
|----------------------------------|


|---------------------------------------------------------|
|--8b--8--8p6/5-------------------------------------------|
|---------------7--5----------------------------7-5-4b----|
|--------------------7--5---------------------------------|
|-------------------------7--5/3-3--3--5/7----------------|
|---------------------------------------------------------|



|------------------------------------------------------------------------|
|----------------7h9/11---9----10----11---12----13--14----15----15---17b-|
|----------5h7/9------------11----12---13----14---15---16----17----------|
|------5h7---------------------------------------------------------------|
|--5/7-------------------------------------------------------------------|
|------------------------------------------------------------------------|

I can just see you with a baby on the way
 Am          
|------|
|-1----|
|-2----|
|-2----|
|------|
|------|

I can just see you when your hair is turning gray
  F        
|-1-----|
|-1-----|
|-2-----|
|-3-----|
|-3-----|
|-1-----|

What I can't see is how I'm ever gonna love you more
  C          
|-0-----|
|-1-----|
|-0-----|
|-2-----|
|-3-----|
|-0-----|


But I've said that before   
 G
|---3b--|
|---0---|
|---0---|
|---0---|
|---2---|
|---3---|






But now you're my whole life, now you're my whole world

|----------------------------------3----------------------------3---------|
|-----------------------------------3----------------------------3--------|
|-------------------------------4----------------------------4------------|
|-----------------------------5----------------------------5--------------|
|-------------------------------------------------------------------------|
|-------------------------------------------------------------------------|

And I just can't believe the way I feel about you girl
|-------------------------5-------------1-------|
|---------------------------5-------------1-----|
|-----------------------6-------------2---------|
|---------------------7-------------3-----------|
|-----------------------------------------------|
|-----------------------------------------------|

Like a river meets the sea, stronger than it's ever been
|-------------------------------3---------------------------3---------|
|--------------------------------3---------------------------3--------|
|----------------------------4---------------------------4------------|
|--------------------------5---------------------------5--------------|
|---------------------------------------------------------------------|
|---------------------------------------------------------------------|

We've come so far since that day and I thought I loved you then
|-----------------------------------5------------------------------1-------|
|-------------------------------------5------------------------------1-----|
|---------------------------------6------------------------------2---------|
|-------------------------------7------------------------------3-----------|
|--------------------------------------------------------------------------|
|--------------------------------------------------------------------------|


|--------------------------|
|--5--8--5h8p5-------------|
|--------------7--5--7b----|
|--------------------------|
|--------------------------|
|--------------------------|

|-------------------5---------------------------------|
|------------------5--8--5h8p5------------------------|
|-0--0--0-------7b-------------7-5--7b--5h7p5----5h7--|
|-0--0--0-------------------------------------7-------|
|-----------------------------------------------------|
|-----------------------------------------------------|

And I thought I loved you then
|----------13--------------|
|--15b--------15b---15b----|
|--------------------------|
|--------------------------|
|--------------------------|
Tap to rate this tab
# A B C D E F G H I J K L M N O P Q R S T U V W X Y Z