Song name
# A B C D E F G H I J K L M N O P Q R S T U V W X Y Z

Brad Paisley - Whiskey Lullaby tab

Capo on 2nd fret 


e|--------------------------------0-0ho1--1-1ho3---3---|
B|----3ho5-5-3-1-0-----3ho5-5-3-1----------------------|
G|-----------------2---------------------2-------2-----|
D|----------------------------------3--------3---------|
A|--0----------------0---------------------------------|
E|-----------------------------------------------------|

e|-3po1----1po0----------------------------------------|
B|-----------------------------------------------------|
G|------2----------------------------------------------|
D|-3---------------------------------------------------|
A|-----------------------------------------------------|
E|-----------------------------------------------------|
Tap to rate this tab
# A B C D E F G H I J K L M N O P Q R S T U V W X Y Z