Song name
# A B C D E F G H I J K L M N O P Q R S T U V W X Y Z

Brad Paisley - Whiskey Lullably tab

Song:Whiskey Lullaby
Written By:Brad Paisley and Allison Krause
Transcribed by: JOSH SHAW
6/09/04

LEGEND

harmonic    12*
slide       s
hammer on   h
pull off    p

E----0h2-2-0-------------0h2--2--0-----5--5s7---7s9h10---9---------------|
B-------------3-2-0------------------3------------------------12*--------|
G-------------------------------------------------------------12*--------|
D------------------------------------------------------------------------|
A------------------------------------------------------------------------|
E------------------------------------------------------------------------|

She put him out /

E---------------0----0----------------------------------------------------|
B--------2----2----2---2--------------------------------------------------|
G------3----3----3-------3------------------------------------------------|
D----0--------------------------------------------------------------------|
A-------------------------------------------------------------------------|
E-------------------------------------------------------------------------|
Tap to rate this tab
# A B C D E F G H I J K L M N O P Q R S T U V W X Y Z