Guitaretab - guitar tabs
Song name
# A B C D E F G H I J K L M N O P Q R S T U V W X Y Z

Brad Paisley - Who Needs Pictures tab

Capo 2nd Fret
Standard Tuning
Tab By North Georgia Boy


Chords Used
    G   G7  D  A7sus4  A   Bm   F#sus4  E
E- -3- -3- -2-  -0-   -0-  -2-  -2-    -0-
B- -3- -2- -3-  -3-   -2-  -3-  -2-    -0-
G- -0- -4- -2-  -2-   -2-  -4-  -2-    -1-
D- -0- -0- -0-  -2-   -2-  -4-  -4-    -2-
A- -2- -0- ---  -0-   -0-  -2-  -4-    -2-
E- -3- -3- ---  ---   ---  -2-  -2-    -0-

INTRO
E-------------------------------------------------------------------|
B------3-------3--------------2--------3-------3-----------------2--|
G--0h2---0-0h2---0-0h2-0-----2-2---0h2---0-0h2----0-0h2-0--------2--|
D--0--0-4--0--0-4-----0-4-2-2------0--0-4--0--0-4------0-4-2-2p0-2--|
A----------2--------------0----------------2---------------0-----4--|
E------------------3--------------------------------3---------------|

VERSE
   D          Bm        G         A7sus4 A
E---------------------------------------------|
B-------3---------3---------3-----3--3-0--2---|
G--2--2---2---4-4---4---0-0---0-----2----2-2--|
D--0-0-0-0-0---4-4-4-4---0-0-0-0---2----2-----|
A-------------2-------------------0-----------|
E-----------------------3---------------------|
   theres.....dresser...I ran.....noon

   D          Bm        G         A7sus4 A
E---------------------------------------------|
B-------3---------3---------3-----3--3-0--2---|
G--2--2---2---4-4---4---0-0---0-----2----2-2--|
D--0-0-0-0-0---4-4-4-4---0-0-0-0---2----2-----|
A-------------2-------------------0-----------|
E-----------------------3---------------------|
   and I......use it....in fact...I think


CHORUS
   D             F#sus4        G         A7sus4       D
E--2--------0-5--2-------------------------------0-3--2---------0-5--|
B-------3--3---------2----2-3--0---3-----3--3-2-3----------3---3-----|
G-----2---2--------4-----4-------0---0-----2-------------2----2------|
D--0-0-0-0--------4-4---4-------0-0-0-0---2-----------0-0-0-0--------|
A----------------2----2------------------0----0----------------------|
E------------------------------3-------------------------------------|
   when we were..we had the....and its...that its...and i could take..   

   F#sus4        G     G7                          A7sus4
E--2-------------------------0-0------2---------------------|
B------2----2-3--3--3--3--3--0--0-0---2--3---3-----3--3-2---|
G----4-----4-------0-----2---2----1--------0---0-----2------|
D---4-4---4-------0-----4----------2------0-0-0-0---2-------|
A--2----2---------------------0--------------------0----0---|
E----------------3-----2-----0----0---2--3------------------|
...be developed..i can.see...fine....who.pictures..with...like mine

E-----------------------------|
B------3-------3--------------|
G--0h2---0-0h2---0-0h2-0------|
D--0--0-4--0--0-4-----0-4-2---|
A----------2--------------0-0-|
E------------------3----------|

[ Tab from: http://www.guitaretab.com/b/brad-paisley/53276.html ]
VERSE
   D          Bm        G         A7sus4 A
E---------------------------------------------|
B-------3---------3---------3-----3--3-0--2---|
G--2--2---2---4-4---4---0-0---0-----2----2-2--|
D--0-0-0-0-0---4-4-4-4---0-0-0-0---2----2-----|
A-------------2-------------------0-----------|
E-----------------------3---------------------|
   standing...think.....everything.roll

   D          Bm        G         A7sus4 A
E---------------------------------------------|
B-------3---------3---------3-----3--3-0--2---|
G--2--2---2---4-4---4---0-0---0-----2----2-2--|
D--0-0-0-0-0---4-4-4-4---0-0-0-0---2----2-----|
A-------------2-------------------0-----------|
E-----------------------3---------------------|
   I think....another...I guess...at least 3 years ago

CHORUS
   D             F#sus4        G         A7sus4       D
E--2--------0-5--2-------------------------------0-3--2---------0-5--|
B-------3--3---------2----2-3--0---3-----3--3-2-3----------3---3-----|
G-----2---2--------4-----4-------0---0-----2-------------2----2------|
D--0-0-0-0--------4-4---4-------0-0-0-0---2-----------0-0-0-0--------|
A----------------2----2------------------0----0----------------------|
E------------------------------3-------------------------------------|
   when we were..and there.....so we.....every......and i swear.......

   F#sus4        G     G7                          A7sus4
E--2-------------------------0-0------2----------------------|
B------2----2-3--3--3--3--3--0--0-0---2--3---3-----3--3-2--3-|
G----4-----4-------0-----2---2----1--------0---0-----2-------|
D---4-4---4-------0-----4----------2------0-0-0-0---2--------|
A--2----2---------------------0--------------------0----0----|
E----------------3-----2-----0----0---2--3-------------------|
..it was only...i can.see...fine....who.pictures..with...like mine


BRIDGE
A
Somewhere in my closet

          G                 D
There's a cardboard box just sitting on a shelf

A
It's full of faded memories

         G                                   E-A
And it's been there ever since the night you left

          D
Oh just forgotten photographs to remind me of the past 

       G                               E
Oh but I can still see everything just fine

          G             A             Bm-E
Who needs pictures with a memory like mine
        E---------
        B-3---3---
        G---0---0-
        D--0-0-0--
        A---------
        E-3-------


          G              A            D
Who needs pictures with a memory like mine
        E---------
        B-3---3---
        G---0---0-
        D--0-0-0--
        A---------
        E-3-------

INTRO AGAIN, BUT END WITH D
E----------------------------------------------------------------2-|
B------3-------3--------------2--------3-------3-----------------3-|
G--0h2---0-0h2---0-0h2-0-----2-2---0h2---0-0h2----0-0h2-0--------2-|
D--0--0-4--0--0-4-----0-4-2-2------0--0-4--0--0-4------0-4-2-2p0-0-|
A----------2--------------0----------------2---------------0-------|
E------------------3--------------------------------3--------------|



Related for Who Needs Pictures tab
Advertisement will be closed in 10 seconds