Song name
# A B C D E F G H I J K L M N O P Q R S T U V W X Y Z

Brad Paisley - Aint Nothing Like tab

E|-------------------------------------------------------------------|
B|-----------------------------------------------1-------------------|
G|----------0--2--2--0-------------------0--0--2---2--0------------0-|
D|-----0h2--------------2--0-----0---0h2----------------2--0---0h2---|
A|--3-------------------------3----3-------------------------3-------|
E|-------------------------------------------------------------------|

E|-------------------------------------------------------------------|
B|-----------------------------------------------1-------------------|
G|----------0--2--2--0-------------------0--0--2---2--0--------------|
D|-----0h2--------------2--0-----0---0h2----------------2--0---------|
A|--3-------------------------3----3-------------------------0-2-3---|
E|-------------------------------------------------------------------|
Tap to rate this tab
# A B C D E F G H I J K L M N O P Q R S T U V W X Y Z