Song name
# A B C D E F G H I J K L M N O P Q R S T U V W X Y Z

Brad Paisley - She Said Yes tab

She said yes---Brad Paisley

Verse 1:
E--0-0-0-0-0-0-0-0-----------------0-0-0-0-0-0-----|
B--0-0-0-0-0-0-0-0-----------------0-0-0-0-0-0-----|
G--9-9-9-9-9-9-9-9-----------------4-4-4-4-4-4-----|
D--9-9-9-9-9-9-9-9-----------------4-4-4-4-4-4-----|
A--7-7-7-7-7-7-7-7-----------------2-2-2-2-2-2-----|
E--0-0-0-0-0-0-0-0-----------------0-0-0-0-0-0-----|
   She moved into my old           That's how we got this whole
   apartment                       thing started 
E--0-0-0-0-0-0-0-0-------------0-0-0-0-0-0-0-0-|
B--0-0-0-0-0-0-0-0-------------0-0-0-0-0-0-0-0-|
G--6-6-6-6-6-6-6-6-------------6-6-6-6-6-6-6-6-|
D--6-6-6-6-6-6-6-6-------------7-7-7-7-7-7-7-7-|
A--4-4-4-4-4-4-4-4-------------7-7-7-7-7-7-7-7-|
E--0-0-0-0-0-0-0-0-------------5-5-5-5-5-5-5-5-|
She called and said            waiting there for me
that i had mail 

E--0-0-0-0-0-0-0-0-----------------0-0-0-0-0-0-----|
B--0-0-0-0-0-0-0-0-----------------0-0-0-0-0-0-----|
G--9-9-9-9-9-9-9-9-----------------4-4-4-4-4-4-----|
D--9-9-9-9-9-9-9-9-----------------4-4-4-4-4-4-----|
A--7-7-7-7-7-7-7-7-----------------2-2-2-2-2-2-----|
E--0-0-0-0-0-0-0-0-----------------0-0-0-0-0-0-----|
   I told her that I'd             How could i know in  
   come and get it                 just a minute 
E--0-0-0-0-0-0-0-0-------------0-0-0-0-0-0-0-0-|
B--0-0-0-0-0-0-0-0-------------0-0-0-0-0-0-0-0-|
G--6-6-6-6-6-6-6-6-------------6-6-6-6-6-6-6-6-|
D--6-6-6-6-6-6-6-6-------------7-7-7-7-7-7-7-7-|
A--4-4-4-4-4-4-4-4-------------7-7-7-7-7-7-7-7-|
E--0-0-0-0-0-0-0-0-------------5-5-5-5-5-5-5-5-|
   That I'd be standing      with my own destiny 
   face to face

Pre-Chorus:
E--0-0-0-0-0-0-0-0-----0-0-0-0-0-0-0-0-------------------------|
B--0-0-0-0-0-0-0-0-----0-0-0-0-0-0-0-0-------------------------|
G--4-4-4-4-4-4-4-4-----6-6-6-6-6-6-6-6-------------------------|
D--4-4-4-4-4-4-4-4-----6-6-6-6-6-6-6-6-------------------------|
A--2-2-2-2-2-2-2-2-----4-4-4-4-4-4-4-4-------------------------|
E--0-0-0-0-0-0-0-0-----0-0-0-0-0-0-0-0-------------------------|
  Ohh and we           sat there talkin' 
E---0-0-0-0-0-0-0-0------------0-0-0-0-0-0-0-0--------------|
B---0-0-0-0-0-0-0-0------------0-0-0-0-0-0-0-0--------------|
G---6-6-6-6-6-6-6-6------------9-9-9-9-9-9-9-9--------------|
D---7-7-7-7-7-7-7-7------------9-9-9-9-9-9-9-9--------------|
A---7-7-7-7-7-7-7-7------------7-7-7-7-7-7-7-7--------------|
E---5-5-5-5-5-5-5-5------------0-0-0-0-0-0-0-0--------------|
    just like we were old      friends 
E--0-0-0-0-0-0-0-0-----0-0-0-0-0-0-0-0-------------------------|
B--0-0-0-0-0-0-0-0-----0-0-0-0-0-0-0-0-------------------------|
G--4-4-4-4-4-4-4-4-----6-6-6-6-6-6-6-6-------------------------|
D--4-4-4-4-4-4-4-4-----6-6-6-6-6-6-6-6-------------------------|
A--2-2-2-2-2-2-2-2-----4-4-4-4-4-4-4-4-------------------------|
E--0-0-0-0-0-0-0-0-----0-0-0-0-0-0-0-0-------------------------|
   And ohh Then I      asked her can 
E---0-0-0-0-0-0-0-0-0-0-0-0-0-0-0-0--------------|
B---0-0-0-0-0-0-0-0-0-0-0-0-0-0-0-0--------------|
G---6-6-6-6-6-6-6-6-6-6-6-6-6-6-6-6--------------|
D---7-7-7-7-7-7-7-7-7-7-7-7-7-7-7-7--------------|
A---7-7-7-7-7-7-7-7-7-7-7-7-7-7-7-7--------------|
E---5-5-5-5-5-5-5-5-5-5-5-5-5-5-5-5--------------|
    I see you again  


Chorus: 
E---------0-0-0-0-0-0-0-0-----------0-0-0-0-0-0-----|
B---------0-0-0-0-0-0-0-0-----------0-0-0-0-0-0-----|
G---------9-9-9-9-9-9-9-9-----------4-4-4-4-4-4-----|
D---------9-9-9-9-9-9-9-9-----------4-4-4-4-4-4-----|
A---------7-7-7-7-7-7-7-7-----------2-2-2-2-2-2-----|
E---------0-0-0-0-0-0-0-0-----------0-0-0-0-0-0-----|
 She said yes                I said wow
E---------0-0-0-0-0-0-0-0-------------0-0-0-0-0-0-0-0--------|
B---------0-0-0-0-0-0-0-0-------------0-0-0-0-0-0-0-0--------|
G---------6-6-6-6-6-6-6-6-------------6-6-6-6-6-6-6-6--------|
D---------6-6-6-6-6-6-6-6-------------7-7-7-7-7-7-7-7--------|
A---------4-4-4-4-4-4-4-4-------------7-7-7-7-7-7-7-7--------|
E---------0-0-0-0-0-0-0-0-------------5-5-5-5-5-5-5-5--------|
 she said when                 I said how about right now 
E-----0-0-0-0-0-0-0-0--------0-0-0-0-0-0-----|
B-----0-0-0-0-0-0-0-0--------0-0-0-0-0-0-----|
G-----9-9-9-9-9-9-9-9--------4-4-4-4-4-4-----|
D-----9-9-9-9-9-9-9-9--------4-4-4-4-4-4-----|
A-----7-7-7-7-7-7-7-7--------2-2-2-2-2-2-----|
E-----0-0-0-0-0-0-0-0--------0-0-0-0-0-0-----|
      Love can't             wait 
E--------0-0-0-0-0-0-0-0-------------0-0-0-0-0-0-0-0--------|
B--------0-0-0-0-0-0-0-0-------------0-0-0-0-0-0-0-0--------|
G--------6-6-6-6-6-6-6-6-------------6-6-6-6-6-6-6-6--------|
D--------6-6-6-6-6-6-6-6-------------7-7-7-7-7-7-7-7--------|
A--------4-4-4-4-4-4-4-4-------------7-7-7-7-7-7-7-7--------|
E--------0-0-0-0-0-0-0-0-------------5-5-5-5-5-5-5-5--------|
  Then I asked if she believed in    fate
E-------------0-0-0-0-0-0-0-0-------------|
B-------------0-0-0-0-0-0-0-0-------------|
G-------------9-9-9-9-9-9-9-9-------------|
D-------------9-9-9-9-9-9-9-9-------------|
A-------------7-7-7-7-7-7-7-7-------------|
E-------------0-0-0-0-0-0-0-0-------------|
 And she said yes 

Verse 2:
The days flew by just like a fast train 
And nothing else has been on my brain 
Except the thought of how she makes me 
The man I wanna be 
And she's the one I want for a million reasons 
Loving her it's just like breathing 
It's easy and it obvious 
She was made for me 

Pre-Chorus:
Ohh then it happend one night looking in her eyes 
Ohh and I popped the question 
Much to my suprise 

Chorus 

bridge
E--0-0-0-0-0-0-0-0---------------|
B--0-0-0-0-0-0-0-0---------------|
G--6-6-6-6-6-6-6-6---------------|
D--6-6-6-6-6-6-6-6---------------|
A--4-4-4-4-4-4-4-4---------------|
E--0-0-0-0-0-0-0-0---------------|
   So we called the precher, family, and friends
E--0-0-0-0-0-0-0-0----------0-0-0-0-0-0-0-0-------------------------|
B--0-0-0-0-0-0-0-0----------0-0-0-0-0-0-0-0-------------------------|
G--4-4-4-4-4-4-4-4----------6-6-6-6-6-6-6-6-------------------------|
D--4-4-4-4-4-4-4-4----------7-7-7-7-7-7-7-7-------------------------|
A--2-2-2-2-2-2-2-2----------7-7-7-7-7-7-7-7-------------------------|
E--0-0-0-0-0-0-0-0----------5-5-5-5-5-5-5-5-------------------------|
   And nothing's been the   same since 

Chorus x2

Tap to rate this tab
 
# A B C D E F G H I J K L M N O P Q R S T U V W X Y Z