Song name
# A B C D E F G H I J K L M N O P Q R S T U V W X Y Z

Brad Sucks - Total Breakdown tab

Tabbed by: Frank H. (tyshur)
Email: huib-x@hotmail.com

Tuning: Standerd (EADGBe)

( intro down and up)
e|--6--6-------------------------------------------------------------------|
B|--6--6-------------------------------------------------------------------|
G|--7--7-------------------------------------------------------------------|
D|--8--8-------------------------------------------------------------------|
A|--8--8-------------------------------------------------------------------|
E|--6--6-------------------------------------------------------------------|


Palm mute the first verse
e|-------------------------------------------------------------------------|
B|-------------------------------------------------------------------------|
G|-------------------------------------------------------------------------|
D|-8-8--8-8-8--8-8-8--8-8-8--8-3-3--3-3-3--3-3-3--3-3-3--------------------|
A|-8-8--8-8-8--8-8-8--8-8-8--8-3-3--3-3-3--3-3-3--3-3-3--------------------|
E|-6-6--6-6-6--6-6-6--6-6-6--6-1-1--1-1-1--1-1-1--1-1-1--------------------|

e|-------------------------------------------------------------------------|
B|-------------------------------------------------------------------------|
G|-------------------------------------------------------------------------|
D|-8-8--8-8-8--8-8-8--8-8-8--8-3-3--3-3-3--3-3-3--3-3-3--------------------|
A|-8-8--8-8-8--8-8-8--8-8-8--8-3-3--3-3-3--3-3-3--3-3-3--------------------|
E|-6-6--6-6-6--6-6-6--6-6-6--6-1-1--1-1-1--1-1-1--1-1-1--------------------|
                                                    (let last two ring)

Chorus
e|-------------------------------------------------------------------------|
B|-------------------------------------------------------------------------|
G|-8-8-8-8-8-8-8-8-8-8-8-8-8-8-8-8-8---------------------------------------|
D|-8-8-8-8-8-8-8-8-8-8-8-8-8-8-8-8-8--8-8-8-8-8-8-8-3-3-3-3-3-3-3-3--------|
A|-6-6-6-6-6-6-6-6-6-6-6-6-6-6-6-6-6--8-8-8-8-8-8-8-3-3-3-3-3-3-3-3--------|
E|------------------------------------6-6-6-6-6-6-6-1-1-1-1-1-1-1-1--------|

e|-------------------------------------------------------------------------|
B|-------------------------------------------------------------------------|
G|-8-8-8-8-8-8-8-8-8-8-8-8-8-8-8-8-8---------------------------------------|
D|-8-8-8-8-8-8-8-8-8-8-8-8-8-8-8-8-8--8--8-8--8--8--8-8-8--8---------------|
A|-6-6-6-6-6-6-6-6-6-6-6-6-6-6-6-6-6--8--8-8--8--8--8-8-8--8---------------|
E|------------------------------------6--6-6--6--6--6-6-6--6---------------|
                                      (listen to song to figure this out)

Second verse
e|-------------------------------------------------------------------------|
B|-------------------------------------------------------------------------|
G|-------------------------------------------------------------------------|
D|-8-8--8-8-8--8-8-8--8-8-8--8-3-3--3-3-3--3-3-3--3-3-3--------------------|
A|-8-8--8-8-8--8-8-8--8-8-8--8-3-3--3-3-3--3-3-3--3-3-3--------------------|
E|-6-6--6-6-6--6-6-6--6-6-6--6-1-1--1-1-1--1-1-1--1-1-1--------------------|

e|-------------------------------------------------------------------------|
B|-------------------------------------------------------------------------|
G|-------------------------------------------------------------------------|
D|-8-8--8-8-8--8-8-8--8-8-8--8-3-3--3-3-3--3-3-3--3-3-3--------------------|
A|-8-8--8-8-8--8-8-8--8-8-8--8-3-3--3-3-3--3-3-3--3-3-3--------------------|
E|-6-6--6-6-6--6-6-6--6-6-6--6-1-1--1-1-1--1-1-1--1-1-1--------------------|


Chorus
e|-------------------------------------------------------------------------|
B|-------------------------------------------------------------------------|
G|-8-8-8-8-8-8-8-8-8-8-8-8-8-8-8-8-8---------------------------------------|
D|-8-8-8-8-8-8-8-8-8-8-8-8-8-8-8-8-8--8-8-8-8-8-8-8-3-3-3-3-3-3-3-3--------|
A|-6-6-6-6-6-6-6-6-6-6-6-6-6-6-6-6-6--8-8-8-8-8-8-8-3-3-3-3-3-3-3-3--------|
E|------------------------------------6-6-6-6-6-6-6-1-1-1-1-1-1-1-1--------|

e|-------------------------------------------------------------------------|
B|-------------------------------------------------------------------------|
G|-8-8-8-8-8-8-8-8-8-8-8-8-8-8-8-8-8---------------------------------------|
D|-8-8-8-8-8-8-8-8-8-8-8-8-8-8-8-8-8--8--8-8--8--8--8-8-8--8---------------|
A|-6-6-6-6-6-6-6-6-6-6-6-6-6-6-6-6-6--8--8-8--8--8--8-8-8--8---------------|
E|------------------------------------6--6-6--6--6--6-6-6--6---------------|
                                      

Bridge
e|----6---6---6---6---6---6--6---6---1---1---1---1---1---1---1---1---------|
B|--6---6---6---6---6---6--6---6---1---1---1---1---1---1---1---1-----------|
G|-------------------------------------------------------------------------|
D|-------------------------------------------------------------------------|
A|-------------------------------------------------------------------------|
E|-------------------------------------------------------------------------|

e|----6---6---6---6---6---6--6---6---1---1---1---1---1---1---1---1---------|
B|--6---6---6---6---6---6--6---6---1---1---1---1---1---1---1---1-----------|
G|-------------------------------------------------------------------------|
D|-------------------------------------------------------------------------|
A|-------------------------------------------------------------------------|
E|-------------------------------------------------------------------------|


Chorus
e|-------------------------------------------------------------------------|
B|-------------------------------------------------------------------------|
G|-8-8-8-8-8-8-8-8-8-8-8-8-8-8-8-8-8---------------------------------------|
D|-8-8-8-8-8-8-8-8-8-8-8-8-8-8-8-8-8--8-8-8-8-8-8-8-3-3-3-3-3-3-3-3--------|
A|-6-6-6-6-6-6-6-6-6-6-6-6-6-6-6-6-6--8-8-8-8-8-8-8-3-3-3-3-3-3-3-3--------|
E|------------------------------------6-6-6-6-6-6-6-1-1-1-1-1-1-1-1--------|

e|-------------------------------------------------------------------------|
B|-------------------------------------------------------------------------|
G|-8-8-8-8-8-8-8-8-8-8-8-8-8-8-8-8-8---------------------------------------|
D|-8-8-8-8-8-8-8-8-8-8-8-8-8-8-8-8-8--8--8-8--8--8--8-8-8--8---------------|
A|-6-6-6-6-6-6-6-6-6-6-6-6-6-6-6-6-6--8--8-8--8--8--8-8-8--8---------------|
E|------------------------------------6--6-6--6--6--6-6-6--6---------------|
                                                           (let ring)


| /  slide up
| \  slide down
| h  hammer-on
| p  pull-off
| ~  vibrato
| +  harmonic
| x  Mute note
============================================================================
Tap to rate this tab
# A B C D E F G H I J K L M N O P Q R S T U V W X Y Z