Brad Sucks - Making Me Nervous tab

hi there,
this one is pretty easy, but it rocks!

artist: brad sucks
song: making me nervous
tuning: e-standard

bass-line (played during the whole song)
   1 + 2 + 3 + 4 + 1 + 2 + 3 + 4 + 1 + 2 + 3 + 4 + 1 + 2 + 3 + 4 +
G|------------------------------------------------------------------|
D|---12--12--12--12--12--12--12--12--15--15--15--15--17--17--17--17-|
A|------------------------------------------------------------------|
E|------------------------------------------------------------------|


you can also play the bass-line one octave lower for a massive sound
   1 + 2 + 3 + 4 + 1 + 2 + 3 + 4 + 1 + 2 + 3 + 4 + 1 + 2 + 3 + 4 +
|-------------------------------------------------------------------|
|-------------------------------------------------------------------|
|----5---5---5---5---5---5---5---5---8---8---8---8---10--10--10--10-|
|-------------------------------------------------------------------|


chorus
   1 + 2 + 3 + 4 + 1 + 2 + 3 + 4 + 1 + 2 + 3 + 4 + 1 + 2 + 3 + 4 +
|------------------------------------------------------------------|
|----6-------6-------6-------6-----------------------------------6-|
|--7-------7-------7-------7-----------------------------------7---|
|------------------------------------------------------------------|
|------------------------------------------------------------------|
|------------------------------------------------------------------|

verse/synthi-solo
   1 + 2 + 3 + 4 + 1 + 2 + 3 + 4 + 1 + 2 + 3 + 4 + 1 + 2 + 3 + 4 +
|------------------------------------------------------------------|
|------------------------------------------------------------------|
|----7---7---7---7---7---7---7---7---------------------------------|
|----7---7---7---7---7---7---7---7---3---3---3---3---5---5---5---5-|
|----5---5---5---5---5---5---5---5---3---3---3---3---5---5---5---5-|
|------------------------------------1---1---1---1---3---3---3---3-|

the whole song is played with an offbeat. use the last two notes from the chorus 
als a guitar-fill.

that's it, listen to the song, it's not difficult....
Tap to rate this tab
 
# A B C D E F G H I J K L M N O P Q R S T U V W X Y Z