Song name
# A B C D E F G H I J K L M N O P Q R S T U V W X Y Z

Brad Sucks - Bad Attraction tab

Standerd tuning 
Tabbed By Nick Katz

some of the last part to the main riff might be wrong, but i play it acousticly 
and it sounds decent



|----------------------|----------------------|-------------------------------------------|
|----------------------|----------------------|-------------------------------------------|
|----------------------|----------------------|-------------------------------------------|(x4)
|----------5b----------|----------5b--7p5-----|----------5b-------------------------------|
|-2-2--5h7----7-5h7-7p5|-2-2--5h7---7-----7p5-|-2-2--5h7----7-5h7-7p5--------------5h7-7p5|
|----------------------|----------------------|-----------------------5-5-7-55-3-3--------|

|------------|
|------------|
|7~97-9-7~9-7~9|(x4)
|------------|
|------------|
|------------|

|----------------------|----------------------|-------------------------------------------|
|----------------------|----------------------|-------------------------------------------|
|----------------------|----------------------|-------------------------------------------|(x4)
|----------5b----------|----------5b--7p5-----|----------5b-------------------------------|
|-2-2--5h7----7-5h7-7p5|-2-2--5h7---7-----7p5-|-2-2--5h7----7-5h7-7p5--------------5h7-7p5|
|----------------------|----------------------|-----------------------5-5-7-55-3-3--------|


|------------|
|------------|
|7~97-9-7~9-7~9|(x4)
|------------|
|------------|
|------------|

|----------------------|----------------------|-------------------------------------------|
|----------------------|----------------------|-------------------------------------------|
|----------------------|----------------------|-------------------------------------------|(x4)
|----------5b----------|----------5b--7p5-----|----------5b-------------------------------|
|-2-2--5h7----7-5h7-7p5|-2-2--5h7---7-----7p5-|-2-2--5h7----7-5h7-7p5--------------5h7-7p5|
|----------------------|----------------------|-----------------------5-5-7-55-3-3--------|



Tabbed by Nick Katz
Tap to rate this tab
 
# A B C D E F G H I J K L M N O P Q R S T U V W X Y Z