Guitaretab - guitar tabs
Song name
# A B C D E F G H I J K L M N O P Q R S T U V W X Y Z

Brad Sucks - Look And Feel Years Younger tab

Standard Tuning
Intro--
-------------------------------------------------------------------|
-------------------------------------------------------------------|
-------------------------------------------------------------------|
-------------------------------------------------------------------|
-------------------------------------------------------------------|
-0-0--0-0--0-0-0-5-5-5-3-3--3-3--3-3--3-0-5-5-5--------------------| x a few
[ Tab from: http://www.guitaretab.com/b/brad-sucks/94559.html ]
Chorus--
-------------------------------------------------------------------|
-------------------------------------------------------------------|
-------------------------------------------------------------------|
-2-2--2-2--2-2-2-7-7-7-5-5--5-5--5-5--5-3-7-7-7--------------------|
-2-2--2-2--2-2-2-7-7-7-5-5--5-5--5-5--5-3-7-7-7--------------------|
-0-0--0-0--0-0-0-5-5-5-3-3--3-3--3-3--3-0-5-5-5--------------------| x a few

Solo--
Rapidly keep attacking the note.
-------------------------------------------------------------------|
-------------------------------------------------------------------|
-------------------------------------------------------------------|
-------------------------------------------------------------------|
-------1-3-5-------3--1--------------------------------------------|
----3--------------------3---1-------------------------------------| x a few

The song is pretty heavy repetition, you only really need these three parts in order to 
it. Enjoy.
Related for Look And Feel Years Younger tab
×
Look And Feel Years Younger