Song name
# A B C D E F G H I J K L M N O P Q R S T U V W X Y Z

Brad - Secret Girl tab

From: Ben Cas [bennycas@hotmail.com]
Sent: Saturday, January 17, 1998 6:05 PM
To: guitar@olga.net
Subject: TAB: "Secret Girl" tab - Brad resubmission

Here's my resubmission. Verses, Choruses, the Bridge and solo now appear
in the order that they do within the song. I hope it's alright now.

Secret Girl - Brad
From the album "Interiors"

x mute
b bend
r release
h hammer on
p pull off
~ vibrato
/ slide up
\ slide down
^^ tremolo

Verse 1:
|---------------------------------------|---------------------------------------|
|---------------------------------------|---------------------------------------|
|---------------------------------------|-8-------------------------------------|
|x--9-----------------------------------|-9-------------------------------------|
|x--9-----------------------------------|-9-------------------------------------|
|x--7-----------------------------------|-7-------------------------------------|
Starts with the above strummed continuously, then progresses into the
Bmaj bit.


Chorus:
B5 E5 A5 D5 G5 F#5
B5 A5
B5 A5

Verse 2:
|---------------------------------------|------*---------*-------|
|---------------------------------------|-7----*--7------*--7----|
|---------------------------------------|-8----*---------*--9----|
|x--9-----------------------------------|-9-9--*----9-9--*--9-9--|
|x--9-----------------------------------|-9-9--*------9--*--9-9--|
|x--7-----------------------------------|-7-7--*------7--*--7-7--|
Mostly consists of above, but play around with these two bits above too,
which
are just variations of the B5 anyway. You'll hear where they fit in.

Chorus:
B5 E5 A5 D5 G5 F#5
B5 A5
B5 A5

Bridge/Interlude:
E5 G#5 F#5 E
E5 G#5 F#5 A

Solo:
(Chorus chords are played over the top)
Here's my best shot...
 1    +    2    +    3    +    4    +    1    +    2    +    3    +    4
+
|---------------------------------------|---------------------------------------|
|--------------------3----5----3----5b--|--------------------7b---7b---7b-------|
|4--------------4-----------------------|---------------------------------------|
|---------------------------------------|---------------------------------------|
|---------------------------------------|---------------------------------------|
|---------------------------------------|---------------------------------------|


 1    +    2    +    3    +    4    +    1    +    2    +    3    +    4
+
|---------------------------------------|---------------------------------------|
|7h10p7----5---------10---7----5----7b--|----------7p5h7p5h7p5------------------|
|---------------------------------------|-------------------------7----6----4---|
|---------------------------------------|---------------------------------------|
|---------------------------------------|---------------------------------------|
|---------------------------------------|---------------------------------------|


 1    +    2    +    3    +    4    +    1    +    2    +    3    +    4
+
|---------------------------------------|---------------------------------------|
|7----10---7----10---7----5---------5b--|---------------------------------------|
|------------------------------7--------|---------------4----7------------------|
|---------------------------------------|---------------------------------------|
|---------------------------------------|---------------------------------------|
|---------------------------------------|---------------------------------------|


 1    +    2    +    3    +    4    +    1    +    2    +    3    +    4
+
|-----7--------------7--------------5b--|-------------------------5----7----5---|
|----------7--------------7----7--------|---------------------------------------|
|---------------------------------------|---------------------------------------|
|---------------------------------------|---------------------------------------|
|---------------------------------------|---------------------------------------|
|---------------------------------------|---------------------------------------|

Chorus:
B5 E5 A5 D5 G5 F#5
B5 A5
B5 A5

Repeat Chorus

During this theres some more improv over Shawn based around these notes
I think...
|----10------10--14---------------------|
|12------12-----------------------------|
|---------------------------------------|
|---------------------------------------|
|---------------------------------------|
|---------------------------------------|

That's it.

Transcribed by me (Ben Cas)
bennycas@hotmail.com

Lyrics:
She...
She wasted no time
Leaving town
She wasted not time
And Lord...
Lord knows I
Am so tired
Tired of fighting

She
She wanted to be
A secret girl
In her own world
She
She wanted to be
A secret girl
A waking dream
Yeah yeah yeah

Forgive...
And forget
'Cause time is wastin'
You're gonna regret it
And Lord
Knows that I
I've been seein' it
Seein' it comin'
Aha

Chorus

Chorus

A secret girl
A secret girl
A secret girl
A secret girl

______________________________________________________
Get Your Private, Free Email at http://www.hotmail.com
Tap to rate this tab
# A B C D E F G H I J K L M N O P Q R S T U V W X Y Z