Song name
# A B C D E F G H I J K L M N O P Q R S T U V W X Y Z

Bragg Billy - Love Gets Dangerous tab

Love Gets Dangerous - Billy Bragg
---------------------------------
trans: gilbert@salyut.mis.gla.ac.uk (Gil McErlane)

Either play the open bass continually or
in a pinch style.

Tempo - as per mood!!

(partial)

riff 1

D----11--11--11-12---
A----0---0---0--0----
E--------------------

riff 2

D----9--9--9-11----
A----0--0--0--0----
E------------------

riff 3

D----11--11--11-12-12--9--9--9-11-
A----0---0---0--0--0---0--0--0-0--
E---------------------------------

riff 4

D--------------------
A----12--12-11-------
E----0---0--0--------

riff 5 

D----------------------
A----16--16--16-11----- I think (could be 12)
E----0---0---0--0------

riff 6 (yes 6!)

D----12--12-11-------
A----0---0--0--------
E--------------------

Right! Briefly:

riff 1
Love of a Woman
riff 2
Fear of the phone
riff 3
secret of a happy home  (guessing here)
riff 4
I've never been so scared
riff4
I never knew you cared

riff 5 (x3) riff 6  riff 4
Love Gets Dangerous


Start again!! (with different words)
Gil McErlane
Physical Resources Team - M.I.S. University of Glasgow
e-mail gilbert@salyut.mis.gla.ac.uk
tel: 0141-307-8052
**
When a fellow says it ain't the money but 
the principle of the thing, it's the money.
                         - Kin Hubbard
**
Tap to rate this tab
# A B C D E F G H I J K L M N O P Q R S T U V W X Y Z