Song name
# A B C D E F G H I J K L M N O P Q R S T U V W X Y Z

Bragg Billy - World Turned Upside Down tab

INTRO - Repeat Two Times

e|----------------------|----------------------|
B|--12-12-12-12-12-12-12|14-14-14-14-14--------|
G|----------------------|---------------11/\11-|
D|----------------------|----------------------|
A|----------------------|----------------------|
E|0---------------------|----------------------|

Verse - Repeat Three times

e|----------------------|----------------------|
B|----------------------|----------------------|
G|----------------------|----------------------|
D|----------------------|----------------------|
A|---7-7-7-7---7-5-7-5--|---7-7-7-7---7-5-7-5--|
E|0----------0----------|0----------0----------|


Pre-Chorus is the verse and intro playing at the same time for two measures



Chorus - Not Finished, Email me if you know it..


The rest is pretty straight forward, it's just repeating the verse and intro. 
Tap to rate this tab
# A B C D E F G H I J K L M N O P Q R S T U V W X Y Z