Song name
# A B C D E F G H I J K L M N O P Q R S T U V W X Y Z

Braid - First Day Back tab

-------------------------------------------------------------------------------
			     FIRST DAY BACK - Braid
-------------------------------------------------------------------------------
Tabbed by:Flombie
Email:flombie92@gmail.com

Tuning: Standard

Yes, some parts could be wrong, some parts are also missing. But there is a distinct 
of Braid tabs, and I would be happy to see any corrections or additions to what is 
a basic tab.

Verse
Guitar 1
e|---------------------------------------------------------------------------|
B|---7777--------------------------------------------------------------------|
G|---9999--------------------------------------------------------------------|
D|---9999--14-----7-----14-----7---------------------------------------------|
A|---0000--14x16--7x16--14x16--7x16---etc.-----------------------------------|
E|---------12-----5-----12-----5---------------------------------------------|

Guitar 2
e|-----------------------------------------------------------------------------|
B|-----------------------------------------------------------------------------|
G|-------------------------------------------18--16--13--11--------------------|
D|---------14-----7-----14-----7-----14-------x---x---x---x--14-----7----------|
A|---------14x16--7x16--14x16--7x16--14x16---16--14--11---9--14x16--7x16-------|
E|---------12-----5-----12-----5-----12----------------------12-----5----------|

Then there is a fill bit, where Bob plays that catchy little solo, and i can't figure it out.

Repeat Verse

e|---------------------------------------------------------------------------|
B|---------------------------------------------------------------------------|
G|---------------------7~-----------------------7~---------------------------|
D|-------7-7h9p7-----7----------7--7h9p7-----7-------------------------------|
A|-----7---------7-5----------7----------7-5---------------------------------|
E|---5----------------------5------------------------------------------------|

Then...

e|---------------------------------------------------------------------------|
B|---------------------------------------------------------------------------|
G|----------9-----------9----------------------------------------------------|
D|----7-----9x16--7-----9x16-------------------------------------------------|
A|----7x16--7-----7x16--7----------------------------------------------------|
E|----5-----------5----------------------------------------------------------|
      ^palm mute the A5 chord

Repeat Verse

e|---------------Proxy-Connection: keep-alive
Cache-Control: max-age=0

-------------------------------------------------------------------------------|
B|-----------------------------------------------------------------------------|
G|-----------------------------------------------------------------------------|
D|---4---7---------------------------------------------------------------------|
A|---2x8-7x16--repeat----------------------------------------------------------|
E|---2---5---------------------------------------------------------------------|

Repeat Verse

Then...

e|---------------------------------------------------------------------------|
B|---------------------------------------------------------------------------|
G|---------------------------------------------------------------------------|
D|----7--7--7--7--7--------77------------------------------------------------|
A|----7--7--7--7--7--etc.--77------------------------------------------------|
E|----5--5--5--5--5--------55------------------------------------------------|

| /  slide up
| \  slide down
| h  hammer-on
| p  pull-off
| ~  vibrato
| +  harmonic
| x  Mute note
===============================================================================
Tap to rate this tab
 
# A B C D E F G H I J K L M N O P Q R S T U V W X Y Z