Song name
# A B C D E F G H I J K L M N O P Q R S T U V W X Y Z

Braid - The New Nathan Detroit tab

Braid
"New Nathans Detroit"
Frames and Canvas (Polyvinyl)

Intro

|--------------------------------------------|
|--------------------------------------------|
|-9-9-9-9-11-11-11-11-5-5-5-5----------------|
|-x-x-x-x-x--x--x--x--x-x-x-x----------------| x4
|-7-7-7-7-9--9--9--9--3-3-3-3----------------|
|------------------------------2b~--2b~------|

Bridge

|-12-12-12/0-------0-------------------------|
|-12-12-12/10-----------------------[7]------|
|-------------7-7/9--9-9/2~-9-99999----[7]---|
|--------------------------------------------|
|--------------------------------------------|
|--------------------------------------------|

|-12-12-12/0-------0-------------------------|
|-12-12-12/10-----------------------[7]------|
|-------------7-7/9--9-9/14~-9-99999----[7]--|
|--------------------------------------------| x2
|--------------------------------------------|
|--------------------------------------------|

|--------------------------------------------||
|--------------------------------------------||
|-8-8-8-8------------------------------------||
|-6-6-6-6------------------------------------||
|-7-7-7-7------------------------------------||
|--------------------------------------------||
Tap to rate this tab
# A B C D E F G H I J K L M N O P Q R S T U V W X Y Z