Song name
# A B C D E F G H I J K L M N O P Q R S T U V W X Y Z

Braid - Never Will Come For Us tab

E|-----------0-|
B|---------7---|
G|---8---8-----| X4 then
D|-----9-------|
A|-7-----------|
E|-------------|

E|-----------0-|
B|---------7---|
G|---8---8-----| X2 then
D|-----9-------|
A|-6-----------|
E|-------------|

E|-6-7-6-0-----|
B|---------7---|
G|-----------8-| X2
D|-------------|
A|-------------|
E|-------------|
Tap to rate this tab
# A B C D E F G H I J K L M N O P Q R S T U V W X Y Z