Song name
# A B C D E F G H I J K L M N O P Q R S T U V W X Y Z

Brain Failure - Livin In The City tab

Brain Failure
Beijing to Boston
Livin' In the City


Intro:
-------------------------------------|
-------------------------------------|
-----------------7-5-5-5-5-5-5-5-----|
---5-5-5-5-5-5-5-7-5-5-5-5-5-5-5-7---|
---5-5-5-5-5-5-5-5-3-3-3-3-3-3-3-7---| x4
---3-3-3-3-3-3-3-----------------5---|


Verse:
-------------------------------------|
-------------------------------------|
-------------------7-7-7-7-7-7-7-7---|
---5-5-5-5-5-5-5-5-7-7-7-7-7-7-7-7---|
---5-5-5-5-5-5-5-5-5-5-5-5-5-5-5-5---| x4
---3-3-3-3-3-3-3-3-------------------|
  pm.............................pm


Chorus
-------------------------------------|
-------------------------------------|
-------------------7-7-7-7-7-7-7-7---|
---5-5-5-5-5-5-5-5-7-7-7-7-7-7-7-7---|
---5-5-5-5-5-5-5-5-5-5-5-5-5-5-5-5---| x4
---3-3-3-3-3-3-3-3-------------------|

http://sister.co.jp/china/BrainFailure/
Tap to rate this tab
# A B C D E F G H I J K L M N O P Q R S T U V W X Y Z