Song name
# A B C D E F G H I J K L M N O P Q R S T U V W X Y Z

Brain Failure - Youre Gonna Die tab

Brain Failure
Beijing to Boston
You're Gonna Die

Intro:
-----------------------------|
-----------------------------|
---5-5---------5-------------|
---5-5-----5---5---5---3-3---|
---3-3-----5---3---5---3-3---| x2
-----------3-------3---1-1---|


Chorus:
-------------------------------------|
-------------------------------------|
---5-5-5-5---------------------------|
---5-5-5-5-5-5-5-5-3-3-3-3-3-3-3-3---|
---3-3-3-3-5-5-5-5-3-3-3-3-3-3-3-3---| x2
-----------3-3-3-3-1-1-1-1-1-1-1-1---|


Verse:
---------------------------------------------------------------------|
---------------------------------------------------------------------|
---5-5-5-5---------5-5-5-5---------5-5-5-5---------------------------|
---5-5-5-5-5-5-5-5-5-5-5-5-5-5-5-5-5-5-5-5-5-5-5-5-3-3-3-3-5-5-5-5---|
---3-3-3-3-5-5-5-5-3-3-3-3-5-5-5-5-3-3-3-3-5-5-5-5-3-3-3-3-5-5-5-5---| x2
-----------3-3-3-3---------3-3-3-3---------3-3-3-3-1-1-1-1-3-3-3-3---|
  pm.............................................................pm

Bridge(Played Behind Solo):
-------------------------------------|
-------------------------------------|
---5-5-------------------------------|
---5-5-----5-5-----3-3---------------|
---3-3-----5-5-----3-3---------------|
-----------3-3-----1-1---------------|

Solo:
On C Scale
----------------------------8-11-------------------|
-----------------------8-11------------------------|
------------------8-10-----------------------------|
-------------8-10----------------------------------|
--------8-10---------------------------------------|
---8-11--------------------------------------------|

^^^Fool Around with these notes it'squite easy and it's not fast I just didn't feel like 
out a bunch of small solo

http://sister.co.jp/china/BrainFailure/
Tap to rate this tab
 
# A B C D E F G H I J K L M N O P Q R S T U V W X Y Z