Song name
# A B C D E F G H I J K L M N O P Q R S T U V W X Y Z

Brain Failure - Coming To The Usa tab

Brain Failure
American Dreamer
Coming to the USA


Intro/Verse:
-------------------------------------|
-------------------------------------|
-------------------5-5-5-5-5-5-5-5---|
---5-5-5-5-5-5-5-5-5-5-5-5-5-5-5-5---|
---5-5-5-5-5-5-5-5-3-3-3-3-3-3-3-3---| x4
---3-3-3-3-3-3-3-3-------------------|
  pm.............................pm

Chorus:
-------------------------------------|
-------------------------------------|
-------------------5-5-5-5-5-5-5-5---|
---5-5-5-5-5-5-5-5-5-5-5-5-5-5-5-5---|
---5-5-5-5-5-5-5-5-3-3-3-3-3-3-3-3---| x4
---3-3-3-3-3-3-3-3-------------------|


http://sister.co.jp/china/BrainFailure/
Tap to rate this tab
# A B C D E F G H I J K L M N O P Q R S T U V W X Y Z