Song name
# A B C D E F G H I J K L M N O P Q R S T U V W X Y Z

Brain Failure - Coming Down To Beijing tab

Brain Failure
Beijing to Boston
Coming Down to Beijing


Intro:
-------------------------------------|
-------------------------------------|
---14----------------------14--------|
---14-(x8)-14------12------14-(x8)---|
---12------14-(x8)-12-(x8)-12--------|
-----------12------10----------------|


Chorus:
---------------------------------------------------------------------|
---------------------------------------------------------------------|
---2-2-2-2-2-2-2-2-----------------7-7-7-7-7-7-7-7-2-2-2-2-2-2-2-2---|
---2-2-2-2-2-2-2-2-2-2-2-2-2-2-2-7-7-7-7-7-7-7-7-7-2-2-2-2-2-2-2-2---|
---0-0-0-0-0-0-0-0-2-2-2-2-2-2-2-2-5-5-5-5-5-5-5-5-0-0-0-0-0-0-0-0---|
-------------------0-0-0-0-0-0-0-0-----------------------------------|


Verse:
-------------------------------------|
-------------------------------------|
---14----------------------14--------|
---14-(x8)-14------12------14-(x8)---|
---12------14-(x8)-12-(x8)-12--------|
-----------12------10----------------|
  pm.........................pm


http://sister.co.jp/china/BrainFailure/
Tap to rate this tab
# A B C D E F G H I J K L M N O P Q R S T U V W X Y Z