Song name
# A B C D E F G H I J K L M N O P Q R S T U V W X Y Z

Braincoats - Hang Them All tab

The song is in Eb tuning, so tune your guitar half step down if you want to play along.

Intro and verse: C Am G F

Chorus: F C Am G F

Bridge: Am G F

The Am is played like this

Am Part
Eb-------------------------|
Bb-------------------------|
Gb--5-5-5-5-5-4-4-4-4------|
Db--5-5-5-5-5-5-5-5-5------|
Ab--0-0-0-0-0-0-0-0-0------|
Eb-------------------------|

And the G like this

G part
Eb-------------------------|
Bb-------------------------|
Gb--5-5-5-5-5-4-4-4-4------|
Db--5-5-5-5-5-5-5-5-5------|
Ab-------------------------|
Eb--3-3-3-3-3-3-3-3-3------|
Tap to rate this tab
# A B C D E F G H I J K L M N O P Q R S T U V W X Y Z