Song name
# A B C D E F G H I J K L M N O P Q R S T U V W X Y Z

Braincoats - Fine chords

Highlighted       Show chord diagrams
This song is played in Eb tuning, half step down.

Intro: 2x
   A                                   F#m           
Eb|------------------------------------------------------------------------------|
Bb|------------------------------------------------------------------------------|
Gb|------------------------------------------------------------------------------|
Db|-7-7-7-7-9-9-9-9-11-11-11-11-6-6-6-6-7-7-7-7-9-9-9-9-11-11-11-11-14-14-14-14--|
Ab|-0-0-0-0-0-0-0-0-0-0-0-0-0-0-0-0-0-0-0-0-0-0-0-0-0-0-0-0-0-0-0-0-0-0-0-0-0-0--|
Eb|------------------------------------------------------------------------------|

 D                                                                   
|--------------------------------------------------------------------------------|
|--------------------------------------------------------------------------------|
|-----------------------------------------------------------------------6-7-7-6-6|
|-12-12-12-12-12-12-12-12-12-12-12-12-12-12-12-12-7-7-7-7-7-7-7-7-7-7-7-7-7-7-7-7|
|-0-0-0-0-0-0-0-0-0-0-0-0-0-0-0-0-0-0-0-0-0-0-0-0-0-0-0-0-0-0-0-0-0-0-0-0-0-0-0-0| 
|--------------------------------------------------------------------------------|


A
You can stab me in my eyes

With broken glass or a knife
      F#m     A
I don't mind, that's fine

You can kick me in the face

And tell me I'm a disgrace
       F#m    A
I don't mind, that's fine

             F#m
But when you tell me
    D               A
How you're not sure about me
                        F#m
You leave my heart here pounding
   E                    D
I don't think I'll get by
                            A
But everything else is just fine


Same as the intro


A
You can force them down my throat,
                   
All the notes that I wrote
      F#m            A
I don't mind, that's fine

You can set my house on fire
                            F#m
And If I can't make it out on time
      A
That's fine


            F#m
But when you tell me
                      D
You're not sure if you need me
                       F#m
The ground erodes beneath me
     E           D
I need you to survive

If I could only have you I'd be fine

Bridge

F#m,D,A,  F#m,D,E   F#m,D,A,A/G#,F#m,E,D,Dm
A
That's fine
F#m
That's fine
D
That's fine
                          A
Everything else is just fine




Tap to rate this tab
# A B C D E F G H I J K L M N O P Q R S T U V W X Y Z