Song name
# A B C D E F G H I J K L M N O P Q R S T U V W X Y Z

Brains All Gone - Bitches Do As Bitches Are tab

INTRO x2:

PM . . . . . . . . . . . . . . . . . . . . . . .
|------------------------------------------------|
|------------------------------------------------|
|-------------------------------5--5--------5--5-|
|-------5--5--------5--5--3--3--------3--3-------|
|-3--3--------3--3-------------------------------|
|------------------------------------------------|

PM . . . . . . . . . . . . . . . . . . .
|------------------------------------------------|
|------------------------------------------------|
|-------------------------------5--5-----5--5--5-|
|-------5--5--------5--5--3--3--------3--3--3--3-|
|-3--3--------3--3-------------------------------|
|------------------------------------------------|

VERSE x2:

PM . . . . . . . . . . . . . . . . . . . . . . .
|------------------------------------------------|
|------------------------------------------------|
|-------------------------------5--5--------5--5-|
|-------5--5--------5--5--3--3--------3--3-------|
|-3--3--------3--3-------------------------------|
|------------------------------------------------|

PM . . . . . . . . . . . . . . . . . . .
|------------------------------------------------|
|------------------------------------------------|
|-------------------------------5--5-----5--5--5-|
|-------5--5--------5--5--3--3--------3--3--3--3-|
|-3--3--------3--3-------------------------------|
|------------------------------------------------|

CHORUS:

|------------------------------------------------|
|------------------------2-2-2-2-2-2-2-2-2-2-2-2-|
|-3-3-3-3-3-3-3-3-3-3-3--2-2-2-2-2-2-2-2-2-2-2-2-|
|-3-3-3-3-3-3-3-3-3-3-3--2-2-2-2-2-2-2-2-2-2-2-2-|
|-1-1-1-1-1-1-1-1-1-1-1--------------------------|
|------------------------------------------------|

|------------------------------------------------|
|------------------------------------------------|
|-5-/--7---7----7--77----5-/--7---7----7--77-----|
|-5-/--7---7----7--77----5-/--7---7----7--77-----|
|-3-/--5---5----5--55----3-/--5---5----5--55-----|
|------------------------------------------------|

|---------------------------------------------------|
|------------------------2--------------------------|
|-3-3-3-3-3-3-3-3-3-3-3--2--------------------------|
|-3-3-3-3-3-3-3-3-3-3-3--2--------------------------|
|-1-1-1-1-1-1-1-1-1-1-1-----------------------------|
|---------------------------------------------------|

|------------------------------------------------|
|------------------------------------------------|
|-5--5-------------------5--5--------------------|
|-5--5-------------------5--5--------------------|
|-3--3-------------------3--3--------------------|
|------------------------------------------------|

INTRO
VERSE x2
CHORUS

SOLO:

|------------------------------------------------|
|------------------------------------------------|
|------------------------------------------------|
|--------------3--5--5--5--5b7--5--3-------------|
|--3-/-5--5--5------------------------5--3--5--5-|
|------------------------------------------------|

|------------------------------------------------|
|------------------------------------------------|
|--5--5--5--3--5--3-----------------3--3---------|
|--------------------5--3--3--5--5--------5------|
|------------------------------------------------|
|------------------------------------------------|

|------------------------------------------------|
|------------------------------------------------|
|------------------------------------------------|
|--------------3--5--5--5--5b7~7~7~7~7--3--------|
|--3-/-5--5--5-----------------------------5-----|
|------------------------------------------------|

|------------------------------------------------|
|------------------------------------------------|
|------------------------------------------------|
|---------------3--5--3--5--3--3--------------0--|
|--3-/-5--5--5--------------------5--5--3--3-----|
|------------------------------------------------|

CHORUS
INTRO x2
VERSE x2

LAST CHORUS:

|------------------------------------------------|
|------------------------2-2-2-2-2-2-2-2-2-2-2-2-|
|-3-3-3-3-3-3-3-3-3-3-3--2-2-2-2-2-2-2-2-2-2-2-2-|
|-3-3-3-3-3-3-3-3-3-3-3--2-2-2-2-2-2-2-2-2-2-2-2-|
|-1-1-1-1-1-1-1-1-1-1-1--------------------------|
|------------------------------------------------|

|------------------------------------------------|
|------------------------------------------------|
|-5-/--7---7----7--77----5-/--7---7----7--77-----|
|-5-/--7---7----7--77----5-/--7---7----7--77-----|
|-3-/--5---5----5--55----3-/--5---5----5--55-----|
|------------------------------------------------|

|------------------------------------------------|
|------------------------2-2-2-2-2-2-2-2-2-2-2-2-|
|-3-3-3-3-3-3-3-3-3-3-3--2-2-2-2-2-2-2-2-2-2-2-2-|
|-3-3-3-3-3-3-3-3-3-3-3--2-2-2-2-2-2-2-2-2-2-2-2-|
|-1-1-1-1-1-1-1-1-1-1-1--------------------------|
|------------------------------------------------|

|------------------------------------------------|
|------------------------------------------------|
|-5-/--7---7----7--77----5-/--7---7----7--77-----|
|-5-/--7---7----7--77----5-/--7---7----7--77-----|
|-3-/--5---5----5--55----3-/--5---5----5--55-----|
|------------------------------------------------|

|------------------------------------------------|
|------------------------2-2-2-2-2-2-2-2-2-2-2-2-|
|-3-3-3-3-3-3-3-3-3-3-3--2-2-2-2-2-2-2-2-2-2-2-2-|
|-3-3-3-3-3-3-3-3-3-3-3--2-2-2-2-2-2-2-2-2-2-2-2-|
|-1-1-1-1-1-1-1-1-1-1-1--------------------------|
|------------------------------------------------|

|------------------------------------------------|
|------------------------------------------------|
|-5-/--77777777777777----5-/--77777777777777-----|
|-5-/--77777777777777----5-/--77777777777777-----|
|-3-/--55555555555555----3-/--55555555555555-----|
|------------------------------------------------|

|------------------------------------------------|
|------------------------2-----------------------|
|-3-3-3-3-3-3-3-3-3-3-3--2-----------------------|
|-3-3-3-3-3-3-3-3-3-3-3--2-----------------------|
|-1-1-1-1-1-1-1-1-1-1-1--------------------------|
|------------------------------------------------|

|------------------------------------------------|
|------------------------------------------------|
|-5--5-------------------5--5--------------------|
|-5--5-------------------5--5--------------------|
|-3--3-------------------3--3--------------------|
|------------------------------------------------|
Tap to rate this tab
 
# A B C D E F G H I J K L M N O P Q R S T U V W X Y Z