Song name
# A B C D E F G H I J K L M N O P Q R S T U V W X Y Z

Brains All Gone - Education tab

INTRO (x2):

|--------------------------------------------------------------------|
|--------------------------------------------------------------------|
|--------------------------------------------------------------------|
|-7------------------------------------------------------------------|
|-7------------------------------------------------------------------|
|-5------------------------------------------------------------------|

|--------------------------------------------------------------------|
|--------------------------------------------------------------------|
|--------------------------------------------------------------------|
|-7--------------------------------------------------------------10-5|
|-7--------------------------------------------------------------10-5|
|-5--------------------------------------------------------------8--3| 

VERSE (x4):

|--------------------------------------------------------------------|
|--------------------------------------------------------------------|
|-----------------10-10-----10-10-----7-7-----7-7-----7-7-----7-7----|
|-7-7-----7-7--------------------------------------------------------|
|-----------------------8-8-------8-8-----5-5-----5-5-----5-5-----5-5|
|-----5-5-----5-5----------------------------------------------------|

PRECHORUS:

|--------------------------------------------------------------------|
|--------------------------------------------------------------------|
|-----------------10-10---------------7-7-------------7-7------------|
|-7-7-------------10-10---------------7-7-------------7-7------------|
|-7-7-------------8--8----------------5-5-------------5-5------------|
|-5-5----------------------------------------------------------------|

|--------------------------------------------------------------------|
|--------------------------------------------------------------------|
|-----------------10-10---------------7---------------7-7-7-7-7-7-7-7|
|-7-7-------------10-10---------------7---------------7-7-7-7-7-7-7-7|
|-7-7-------------8--8----------------5---------------5-5-5-5-5-5-5-5|
|-5-5----------------------------------------------------------------|

CHORUS (x4):

|--------------------------------------------------------------------|
|--------------------------------------------------------------------|
|--------------------------------------------------------------------|
|--7---7---7----10---10---10---10---7---7---7---7---3---3---3---3----|
|--7---7---7----10---10---10---10---7---7---7---7---3---3---3---3----|
|--5---5---5----8----8----8----8----5---5---5---5---1---1---1---1----|

|--------------------------------------------------------------------|
|--------------------------------------------------------------------|
|---------------------------------------------------7---7---7---7----|
|--7---7---7----10---10---10---10---7---7---7---7---7---7---7---7----|
|--7---7---7----10---10---10---10---7---7---7---7---5---5---5---5----|
|--5---5---5----8----8----8----8----5---5---5---5--------------------|

BRIDGE:

|--------------------------------------------------------------------|
|--------------------------------------------------------------------|
|--------------------------------------------------------------------|
|-7------------------------------------------------------------------|
|-7------------------------------------------------------------------|
|-5------------------------------------------------------------------|

|--------------------------------------------------------------------|
|--------------------------------------------------------------------|
|--------------------------------------------------------------------|
|-7------------------------------------------------------------------|
|-7------------------------------------------------------------------|
|-5---------------------------------------------------------------13\|

VERSE (x4)
PRECHORUS
CHORUS

BRIDGE2:

|--------------------------------------------------------------------|
|--------------------------------------------------------------------|
|--------------------------------------------------------------------|
|-7------------------------------------------------------------------|
|-7------------------------------------------------------------------|
|-5------------------------------------------------------------------|

|--------------------------------------------------------------------|
|--------------------------------------------------------------------|
|--------------------------------------------------------------------|
|-7------------------------------------------------------------------|
|-7------------------------------------------------------------------|
|-5------------------------------------------------------------------|

SOLO:

|--------------------------------------------------------------------|
|--------------------------------------------------------------------|
|---------10------7-----------10------7------5-----------------------|
|----7-------------------7-------------------------7-----------------|
|--------------------------------------------------------------------|
|--------------------------------------------------------------------|

|--------------------------------------------------------------------|
|---------------------------------------13----13----13---------------|
|---14-14-14-14-17-17-17-17-16-16-16-16----16----16----16------------|
|--------------------------------------------------------------------|
|--------------------------------------------------------------------|
|--------------------------------------------------------------------|

|--------------------------------------------------------------------|
|---------------------------------------17----17----17---------------|
|---14-14-14-14-17-17-17-17-19-19-19-19----19----19----19------------|
|--------------------------------------------------------------------|
|--------------------------------------------------------------------|
|--------------------------------------------------------------------|

|--------------------------------------------------------------------|
|---------------------------------------13----13----13---------------|
|---14-14-14-14-17-17-17-17-16-16-16-16----16----16----16------------|
|--------------------------------------------------------------------|
|--------------------------------------------------------------------|
|--------------------------------------------------------------------|

|--------------------------------------------------------------------|
|---------------------------------------17----17----18-17------------|
|---14-14-14-14-17-17-17-17-19-19-19-19----19----19------------------|
|--------------------------------------------------------------------|
|--------------------------------------------------------------------|
|--------------------------------------------------------------------|

PRECHORUS
CHORUS (x4)
Tap to rate this tab
# A B C D E F G H I J K L M N O P Q R S T U V W X Y Z