Song name
# A B C D E F G H I J K L M N O P Q R S T U V W X Y Z

Brainwash Squad - Streets tab

Brainwash Squad "Streets"  
Album: "Days Are a Maze"
http://www.myspace.com/brainwashathens

Intro (rhythm guitar)

	Gm	   Gm          Cm       FMaj      	
e|--------3----------3----------3--------1--|
B|--------3----------3----------4--------1--|
G|--------3----------3----------5--------2--|
D|--------5----------5--------5----------3--|
A|-----5----------5---------3----------3----|
E|---3--------1/3--------------------1------|

      Gm	 Gm        Cm	
e|-----3----------3----------3--|
B|-----3----------3----------4--|
G|-----3----------3----------5--|
D|-----5----------5---------5---|
A|-----5---------5---------3----|
E|--1/3-------1/3---------------|


Guitar 1 (rhythm)

	Gm	   Gm          Cm       FMaj      
e|-------3----------3----------3--------1-----|
B|-------3----------3----------4--------1-----|
G|-------3----------3----------5--------2-----|
D|-------5----------5--------5----------3-----|
A|-------5----------5-------3-----------3-----|
E|-----3----------3---3---------------1---1---|

  Gm	     Gm		Cm	FMaj	
e|----3----------3----------3--------1--------|
B|----3----------3----------4--------1--------|
G|----3----------3----------5--------2--------|
D|----5----------5--------5----------3--------|
A|----5----------5-------3---------3----------|
E|--3----------3---3------------0-1-----------|

Guitar 2 (lead)

e|----------------------------------------------------------------|
B|----------------------------------------------------------------|
G|----------------------------------------------------------------|
D|-8-8---7-8-8---8-9-9-9-9-7-7-7-8---8-7-8-8---8-9-9-9-9-7-7-7-5--|
A|----------------------------------------------------------------|
E|----------------------------------------------------------------|

Verse 1:

Guitar 1 (rhythm)

	Gm	   Gm          Cm       FM        
e|--------3----------3----------3--------1---|
B|--------3----------3----------4--------1---|
G|--------3----------3----------5--------2---|
D|--------5----------5--------5----------3---|
A|-----5----------5---------3----------3-----|
E|---3--------1/3--------------------1-------|

     Gm	          Gm	   Cm	     FM	
e|------3----------3----------3-------1-|
B|------3----------3----------4-------1-|
G|------3----------3----------5-------2-|
D|------5----------5--------5---------3-|
A|----5---------5---------3---------3---|
E|-1/3-------1/3-------------------1----|




	BbM    FM     Cm     FM      BbM     FM    Cm
e|---------------------3-----------------------------3---|
B|------3------1-------4------1------3-------1-------4---|
G|------3------2-------5------2------3-------2------5----|
D|----3--------3-----5--------3----3---------3-----5-----|
A|--1--------3-----3--------3-----1---------3-----3------|
E|---------1--------------1--------------1---------------|

Guitar 2 (lead)
     BbM      FM       Cm          FM     BbM    FM      Cm      FM
e|-----------------------------------------------------------------------|
B|-----------------------------------------------------------------------|
G|-----7--------2---------8--------2-------7-------2---------12-------2--|
D|--8-8-8---3-3--3--10-10--10--3-3--3--8-8--8--3-3--3---13-13--13--3-3--3|
A|-----------------------------------------------------------------------|
E|-----------------------------------------------------------------------|

Repeat intro (x1) & Verse (x1)

Chorus: 

Guitar chords (strumming rhythmically)

    EbM    FM    BbM   D7
e|------------------------------|
B|--8------10----6-----7--------|
G|--8------10----7-----5--------|
D|--8------10----8-----7--------|
A|--6------8-----8-----5--------|
E|---------------6--------------|

Bridge 1:
Guit.1				Guit.2
e|-------------------------------------------------------------------------|
B|-------------------------------------------------------------------------|
G|--7-----7-------8-------8-------10--------10---------12----------12-14-15|
D|-8-8-7-8-8-7--10-10-8-7-------12--12-10-12--12-10--13--13-12-10----------|
A|-----------------------8-8-------------------------------------12--------|
E|-------------------------------------------------------------------------|



Verse 2:

Guitar chords (funky strumming)

   Gm       Cm       FM      Gm     Cm      FM
e|--10-------8---------------10------8---------|
B|--11-------8-------10------11------8------10-|
G|--12-------8-------10------12------8------10-|
D|--12-------10------10------12------10-----10-|
A|--10-------10------8-------10------10-----8--|
E|-----------8-----------------------8---------|
 
  BbM     FM      Cm    FM   BbM     FM    Cm   FM
e|----------------11-----------------------11---13-|
B|--11----10------13----10----11-----10----13---10-|
G|--10----10------12----10----10-----10----12---10-|
D|--12----10------------10----12-----10---------10-|
A|--13------------------------13-------------------|
E|-------------------------------------------------|

Repeat Intro (x1), Chorus (x1)

Bridge 2 (X2):

e|------------------------------|
B|------------------------------|
G|------------------------------|
D|----------------5-------------|
A|-----1----1-3-3--3-------0----|
E|-3--3-3--3-----------1-1--1---|

Guitar solo

e|-15b---15-13---------13-13-13p-15p-------|
B|------------15-15--15--------------13-15-|
G|-----------------------------------------|
D|-----------------------------------------|
A|-----------------------------------------|
E|-----------------------------------------|

e|---------------------------------------|
B|-15-16-15-16----15---------------------|
G|-------------17---15-17-14-15----------|
D|-----------------------------15-slide--|
A|---------------------------------------|
E|---------------------------------------|

e|--15-(X5)-----------------------------------------------------|
B|--15-(x5)-----------------------------------------------------|
G|--15-(x5)----17-17-17b-15--15-17b-15--15-17b-15--15-17b-15--15|
D|-------------------------17---------17---------17---------17--|
A|--------------------------------------------------------------|
E|--------------------------------------------------------------|


e|-------------------------------------|
B|-------------------------------------|
G|---17-17bfull---14-15-14-15-14-------|
D|-------------15----------------15-13-|
A|-------------------------------------|
E|-------------------------------------|

Chorus (x2)




Tap to rate this tab
 
# A B C D E F G H I J K L M N O P Q R S T U V W X Y Z