Song name
# A B C D E F G H I J K L M N O P Q R S T U V W X Y Z

Brand New Sin - Black And Blue tab

-------------------------------------------------------------------------------
			     Brand New Sin - Black and Blue
-------------------------------------------------------------------------------
Tabbed by: aj
Email: mizmo21@yahoo.com

Tuning:drop c

D|---------------------------------------------------|
A|---------------------------------------------------|
F|---------------------------------------------------|
C|---------------------------------------------------|
G|--3-3-3-3-3-3-3------------------------------------|
C|--3-3-3-3-3-3-3------------------------------------|

fast up and down strokes ^

D|-------------------------------------------------|
A|-------------------------------------------------|
F|-------------------------------------------------|
C|--3--3--------5/8-8------------------------------|
G|--3--3--------3/6-6------------------------------|
C|--3--3-------------------------------------------|

D|---------------------------------------------------|
A|---------------------------------------------------|
F|---------------------------------------------------|
C|--6--8-----8---------------------------------------|
G|--6--8-----6---------------------------------------|
C|--6--8---------------------------------------------|

D|---------------------------------------------------|
A|---------------------------------------------------|
F|---------------------------------------------------|
C|--3--3-------------------5/8--8--------------------|
G|--3--3---3-3-3-3-3-3----3/6--6---------------------|
C|--3--3---3-3-3-3-3-3-------------------------------|


D|-------------------------------------------------|
A|-------------------------------------------------|
F|-------------------------------------------------|
C|--3--3--------5/8-8------------------------------|
G|--3--3--------3/6-6------------------------------|
C|--3--3-------------------------------------------|

D|---------------------------------------------------|
A|---------------------------------------------------|
F|---------------------------------------------------|
C|--8--8---6-----------------------------------------|
G|--6--8---6-----------------------------------------|
C|-----8---6-----------------------------------------|

D|-------------------------------------------------|
A|-------------------------------------------------|
F|-------------------------------------------------|
C|--3--3--------5/8-8------------------------------|
G|--3--3--------3/6-6------------------------------|
C|--3--3-------------------------------------------|

D|---------------------------------------------------|
A|---------------------------------------------------|
F|---------------------------------------------------|
C|--10---6---8---8---6---4---3-----6---8---8---------|
G|--8----6---6---8---6---4---3-----6---6---8---------|
C|-------6-------8---6---4---3-----6-------8---------|
Tap to rate this tab
# A B C D E F G H I J K L M N O P Q R S T U V W X Y Z