Song name
# A B C D E F G H I J K L M N O P Q R S T U V W X Y Z

Brand New Sin - Once In A Life Time tab

----------------------------------------------------------------------------
			     Once In A Life Time - Brand New Sin
----------------------------------------------------------------------------
Tabbed by: Matt Breedlove
Email: asrgames@yahoo.com

This is the main riff for the song. Acoustic Guitar. I'll tab Distorted guitar soon.

Tuning: Standard

Guitar I - This is repeated through out the song.
e|--------------------------------------------------------------------------|
B|--------------------------------------------------------------------------|
G|--------------------------------------------------------------------------|
D|--0h2---0h2p0--0---0---0---0---0---0--------------------------------------|
A|------2----------2---2---2---2---2---2------------------------------------|
E|--------------------------------------------------------------------------|

e|--------------------------------------------------------------------------|
B|--------------------------------------------------------------------------|
G|--------------------------------------------------------------------------|
D|--0h2---0h2p0--0---0---0---0---0---0--------------------------------------|
A|------2----------2---2---2---2---2---2------------------------------------|
E|--------------------------------------------------------------------------|

| /  slide up
|   slide down
| h  hammer-on
| p  pull-off
| ~  vibrato
| +  harmonic
| x  Mute note
===============================================================================
Tap to rate this tab
 
# A B C D E F G H I J K L M N O P Q R S T U V W X Y Z