Song name
# A B C D E F G H I J K L M N O P Q R S T U V W X Y Z

Brand New Sin - Spp tab

-------------------------------------------------------------------------------
                                       SPP - Brand New Sin
-------------------------------------------------------------------------------
Tabbed by: AJ
Email: mizmo21@yahoo.com

Tuning: good ol drop c

d|-------------------------------------------------------------------------|
a|-------------------------------------------------------------------------|
f|--0-0-0-0-0--1-0--0-0-0-0-0-0--1-0--0-0-0-0-0-0--1-0--0-0-0-0-0-0------|
c|--0-0-0-0-0--1-0--0-0-0-0-0-0--1-0--0-0-0-0-0-0--1-0--0-0-0-0-0-0-----|
g|--0-0-0-0-0--1-0--0-0-0-0-0-0--1-0--0-0-0-0-0-0--1-0--0-0-0-0-0-0-----|
c|--0-0-0-0-0--1-0--0-0-0-0-0-0--1-0--0-0-0-0-0-0--1-0--0-0-0-0-0-0-----|
 
up and down strokes                    

d|---------------------------------------------|
a|----------------------------------------------|
f|-----------------------8-8-7--------------------|
c|------------0--5--7----8-8-7--------------------|
g|---0--3--5---------------------------------------|
c|-----------------------------------------------|

d|----------------------------------------------------------------------|
a|----------------------------------------------------------------------|
f|--0-0-0-0-0--1-0--0-0-0-0-0-0--1-0--0-0-0-0-0-0--1-0--0-0-0-0-0-0------|
c|--0-0-0-0-0--1-0--0-0-0-0-0-0--1-0--0-0-0-0-0-0--1-0--0-0-0-0-0-0-----|
g|--0-0-0-0-0--1-0--0-0-0-0-0-0--1-0--0-0-0-0-0-0--1-0--0-0-0-0-0-0-----|
c|--0-0-0-0-0--1-0--0-0-0-0-0-0--1-0--0-0-0-0-0-0--1-0--0-0-0-0-0-0-----|

d|----------------------------------------------|
a|-----------------------------------------------|
f|-----------------------------------------------|
c|------------0--5--7----1--1--0------------------|
g|---0--3--5-------------1--1--0------------------|
c|------------------------1--1--0-------------------|

d|----------------------------------------------|
a|-----------------------------------------------|
f|-----------------------------------------------|
c|---1--0----------1--0----------------------------|
g|---1--0----------1--0-----------------------------|
c|---1--0----------1--0------------------------------|

repeat


now repeat !!
d|----------------------------------------------------------------------|
a|----------------------------------------------------------------------|
f|--0-0-0-0-0--1-0--0-0-0-0-0-0--1-0--0-0-0-0-0-0--1-0--0-0-0-0-0-0------|
c|--0-0-0-0-0--1-0--0-0-0-0-0-0--1-0--0-0-0-0-0-0--1-0--0-0-0-0-0-0-----|
g|--0-0-0-0-0--1-0--0-0-0-0-0-0--1-0--0-0-0-0-0-0--1-0--0-0-0-0-0-0-----|
c|--0-0-0-0-0--1-0--0-0-0-0-0-0--1-0--0-0-0-0-0-0--1-0--0-0-0-0-0-0-----|

d|---------------------------------------------|
a|----------------------------------------------|
f|-----------------------8-8-7--------------------|
c|------------0--5--7----8-8-7--------------------|
g|---0--3--5---------------------------------------|
c|-----------------------------------------------|

d|----------------------------------------------|
a|-----------------------------------------------|
f|-----------------------------------------------|
c|------------0--5--7----1--1--0------------------|
g|---0--3--5-------------1--1--0------------------|
c|------------------------1--1--0-------------------|

d|----------------------------------------------|
a|-----------------------------------------------|
f|-----------------------------------------------|
c|---1--0----------1--0----------------------------|
g|---1--0----------1--0-----------------------------|
c|---1--0----------1--0------------------------------|

repeat FASTER!!!!

d|----------------------------------------------|
a|-----------------------------------------------|
f|-----------------------------------------------|
c|---7--5--3--5--7---7--5--3---------------------|
g|---5--3--1--3--5---5--3--1---------------------|
c|-----------------------------------------------|

kris's rippin solo maybe sometime soon!! i kno it.. but i suck at tabbing bad


| /  slide up
| \  slide down
| h  hammer-on
| p  pull-off
| ~  vibrato
| +  harmonic
| x  Mute note
Tap to rate this tab
# A B C D E F G H I J K L M N O P Q R S T U V W X Y Z