Song name
# A B C D E F G H I J K L M N O P Q R S T U V W X Y Z

Brand New Sin - Broken Soul Update tab

-------------------------------------------------------------------------------
                                      Brand New Sin - Broken Soul
-------------------------------------------------------------------------------
Tabbed by: A.J.
Email: mizmo21@yahoo.com

Tuning: drop C

intro

d|-------------------------------------------------------------------------------|
a|-------------------------------------------------------------------------------|
f|-------------------------------------------------------------------------------|
c|--5--5--5--7--------------------------5--5--5---7------------------------------|
g|--3--3--3--5--------------------------3--3--3---5------------------------------|
c|--------------0-0-0-0-3-0-0-0-0-3-0-0-------------0-0-0-0-3-0-0-0-0-3-0-0------|

repeat 6x               up and down strokes    (*PM* 0-3)


chorus

d|------------------------------------------------------------|
g|------------------------------------------------------------|
f|------------------------------------------------------------|
c|--7--5-----5--3---5---7----5---5----3--5--7-----------------|
g|--5--3-----3--1---3---5----3---3----1--3--5-----------------|
c|------------------------------------------------------------|


ending of chorus
d|--------------------------------------------------------------|
g|--------------------------------------------------------------|
f|--------------------------------------------------------------|
c|--1--1--1---5---5---5----5------------------------------------|
g|--3--3--3---3---3---3----7------------------------------------|
c|--------------------------------------------------------------|

basic layout uses same all the way threw
d|-------------------------------------------------------------------------------|
a|-------------------------------------------------------------------------------|
f|-------------------------------------------------------------------------------|
c|--5--5--5--7--------------------------5--5--5---7------------------------------|
g|--3--3--3--5--------------------------3--3--3---5------------------------------|
c|--------------0-0-0-0-3-0-0-0-0-3-0-0-------------0-0-0-0-3-0-0-0-0-3-0-0------|
Tap to rate this tab
# A B C D E F G H I J K L M N O P Q R S T U V W X Y Z